PrimaNota.ru - самый крупный в мире бесплатный архив песенных текстов, аккордов, табулатур и нот


Dystopia - Population Birth Control - текст песни, таба, видео

Регистрация Запомнить меня
Войти через:  Facebook Google Twitter Vk Yandex Mail.ru

Dystopia - Population Birth Control - текст песни, таба, видео

Печатать
Просмотров: 108
DYSTOPIA - POPULATION BIRTH CONTROL

A Standard

BD = bend down
BU = bend up

A|-------------------------------------------------|
E|-------------------------------------------------|
C|-------------------------------------------------| 
G|-------------------------------------------------|
D|-7-----5--7-----5--7-----5-----5--4--------------|
A|----6--------6--------0-----3--------3--0--1--4--|

A|-------------------------------------------------|
E|-------------------3-----------------------------|
C|-------------------------------------------------| 
G|-------------------------------------------------|
D|-7-----5--7-----5--------5-----5--4--------------|
A|----6--------6--------0-----3--------3--0--1--4--|

play above x2

    A|-------------------------------------------------|
    E|-------------------------------------------------|
GTR C|-------------------------------------------------| 
 1  G|-------------------------------------------------|
    D|-7-----5--7-----5--7-----5-----5--4--------------|
    A|----6--------6--------0-----3--------3--0--1--4--|

    A|-------------------------------------------------|
    E|-------------------------------------------------|
GTR C|-999999999999999999999-7777777-66666666666666666-|
 2  G|-------------------------------------------------|
    D|-------------------------------gradual bend down-|
    A|-------------------------------------------------|

    A|-------------------------------------------------|
    E|-------------------5-----------------------------|
GTR C|-------------------------------------------------| 
 1  G|-------------------------------------------------|
    D|-7-----5--7-----5--------5-----5--4--------------|
    A|----6--------6--------0-----3--------3--0--1--4--|

    A|-------------------------------------------------|
    E|-------------------------------------------------|
GTR C|-777777777777777777777-5555555-44444444444444444-|
 2  G|-------------------------------------------------|
    D|-------------------------------gradual bend down-|
    A|-------------------------------------------------|

A|--------------------------------|
E|--------------------------------|
C|--------------------------------|
G|-3-----3-----3---5-8-5--8-5-5-8-| x4
D|-1-2-2-1-2-2-1-2-5-8-5--8-5-5-8-|
A|---0-0---0-0---0-3-6-3--6-3-3-6-|
      P M   P M  PM

A|-------------------------------------------------|
E|-------------------------------------------------|
C|-------------------------------------------------| 
G|-9-----7--9-----7--9-----7-----7--6--------------| x4
D|-7--8--5--7--8--5--7--2--5--5--5--4--5--2--3--6--|
A|----6--------6--------0-----3--------3--0--1--4--|

A|--------------------------------|
E|--------------------------------|
C|--------------------------------|
G|-3-----3-----3---5-8-5--8-5-5-8-| x4
D|-1-2-2-1-2-2-1-2-5-8-5--8-5-5-8-|
A|---0-0---0-0---0-3-6-3--6-3-3-6-|
     P M   P M   PM

A|-------------------------------|
E|-------------------------------|
C|-------------------------------|
G|-------------------------------| x4
D|----------7-7-7-7--------------|
A|-0--0-0-0---------6-6-6-8BDBU8-|

A|----------------------------------|
E|----------------------------------|
C|----------------------------------|
G|-1---------9-9-9-9-8-8-8-10-11-10-| x4
D|-2---2-2-2-7-7-7-7-8-8-8-10-11-10-|
A|-1---0-0-0---------6-6-6-8--9--8--|
       PMP M

A|-------------------------------|
E|-------------------------------|
C|-------------------------------|
G|-------------------------------| x4
D|----------7-7-7-7--------------|
A|-0--0-0-0---------6-6-6-8BDBU8-|

A|----------------------------------|
E|----------------------------------|
C|----------------------------------|
G|-1---------9-9-9-9-8-8-8-10-11-10-| x3
D|-2---2-2-2-7-7-7-7-8-8-8-10-11-10-|
A|-1---0-0-0---------6-6-6-8--9--8--|
       PMP M

A|-------------|
E|-------------|
C|-------------|
G|-1-----------| 
D|-2---2-2-2-2-|
A|-1---0-0-0-0-|
       P M P M

We fuckin' multiply!

A|----------|
E|----------|
C|----------|
G|-7--8--7--|
D|-7--8--7--|
A|-5--6--5--|

A|------------------------------|
E|------------------------------|
C|------------------------------|
G|-8--8--7--6-6-6-6-6-6-9-8-4-7-| x8
D|-6--6--5--4-4-4-4-4-4-7-6-2-5-|
A|------------------------------|

--------------------------------------------

A|--------------------------------------|
E|--------------------------------------|
C|--------------------------------------|
G|-----555555555999998888-5-5-8-8-5-8-3-|
D|-2-2-333333333777776666-5-5-8-8-5-8-3-|
A|-0-0--------------------3-3-6-6-3-6-1-|

A|-----------------------------------|
E|-----------------------------------|
C|-----------------------------------|
G|-----99999-888555888-5-5-9-9-9-9-9-|
D|-2-2-77777-666333666-5-5-7-7-7-7-7-|
A|-0-0-----------------3-3-----------|

whole section x2
---------------------------------------------

A|-------------------------------------------------------|
E|-------------------------------------------------------|
C|-------------------------------------------------------|
G|-------------------------------------------------------| x2
D|-----3-3-7-7-------------------3-3-8-8-7-3-3-6---------|
A|-0-0---------6-3-3-6-6-3-6-1-0-----------------3-3-0-0-|

A|---------------------------------------------------------|
E|---------------------------------------------------------|
C|---------------------------------------------------------|
G|-----5-5-9-9-------------------5-5-10-10-9-5-5-8---------| x4
D|-2-2-3-3-7-7-8-5-5-8-8-5-8-3-2-3-3-8--8--7-3-3-6-5-5-2-2-|
A|-0-0---------6-3-3-6-6-3-6-1-0-------------------3-3-0-0-|

A|---|
E|---|
C|---|
G|-2-|
D|-2-|
A|-0-|

END
Добавлено: 03.12.2013
Вам также может быть интересно:
Другие материалы по этой песне:
  • Аккорды и текст

Страница создана 18.07.2012
http://primanota.ru/dystopia/population-birth-control-chords.htm
Привет, Гость.
Предлагаем пройти революционный курс по гитаре.
Подарок от PrimaNota.Ru, забирай!