PrimaNota.ru - самый крупный в мире бесплатный архив песенных текстов, аккордов, табулатур и нот


Dystopia - My Meds Arent Working - таба, видео

Регистрация Запомнить меня
Войти через:  Facebook Google Twitter Vk Yandex Mail.ru

Dystopia - My Meds Arent Working - таба, видео

Печатать
Просмотров: 115
Уроки эстрадного вокала в Санкт-Петербурге
My Meds Aren't Working

The order or rhythm isn't exact but it's easy to figure out.

A Standard Tuning
Low to High
A-D-G-C-E-A


Intro
A|---------------------------------------------------------------|
E|---------------------------------------------------------------|
C|--------6-----------------------9------------------------------|
G|------8------x a bunch--------8--------------------------------|
D|----8-----------------------6----------------------------------|
A|--6-----------------------6------------------------------------|

Verse
e|---------------------------------------------------------------|
B|---------------------------------------------------------------|
G|---------------------------------------------------------------|
D|--8--7--7--7--10-7--7--7--8--6--6--6-3--3--3-------------------|
A|--8--7--7--7--10-7--7--7--8--6--6--6-3--3--3-------------------|
E|--6--5--5--5--8--5--5--5--6--4--4--4\1--1--1-------------------|

Verse 2
e|---------------------------------------------------------------|
B|---------------------------------------------------------------|
G|---------------------------------------------------------------|
D|---------------------------------------------------------------|
A|-------7-8-7-5h7--8-6--6--6--6--6-3--3--3--3-------------------|
E|--5-5-------------6-4--4--4--4--4-1--1--1--1-------------------|

Chorus
e|---------------------------------------------------------------------------------------|
B|---------------------------------------------------------------------------------------|
G|---------------------------------------------------------------------------------------|
D|-------5---------------------5-------------------6--6-6-6-6-6-3-3-3--6--6-6-6-6-6-3-3-3|
A|---7-8---8-7--8-7-5-7----7-8---8-7-8-7-5-7-5-----6--6-6-6-6-6-3-3-3--6--6-6-6-6-6-3-3-3|
E|-5---------------------5-------------------------4--4-4-4-4-4-1-1-1--4--4-4-4-4-4-1-1-1|

Bridge
e|---------------------------------------------------------------|
B|---------------------------------------------------------------|
G|---------------------------------------------------------------|
D|---------------------------------------------------------------|
A|--7--7-7-7-7-9-7-9--10-10-13--6-3-6----------------------------|
E|--5--5-5-5-5-7-5-7--8--8--11--4-1-4----------------------------|

Intro 
Verse x8
Verse 2 x4
Verse x6
Verse 2 x4
Chorus x2
Bridge x10
Chorus x4
Добавлено: 20.07.2012
Другие материалы по этой песне:
  • Аккорды и текст

Страница создана 20.07.2012
http://primanota.ru/dystopia/my-meds-arent-working-chords.htm
Привет, Гость.
Предлагаем пройти революционный курс по гитаре.
Подарок от PrimaNota.Ru, забирай!