PrimaNota.ru - самый крупный в мире бесплатный архив песенных текстов, аккордов, табулатур и нот


Dynamite Boy - Cant Help Falling In Love - таба, видео

Регистрация Запомнить меня
Войти через:  Facebook Google Twitter Vk Yandex Mail.ru

Dynamite Boy - Cant Help Falling In Love - таба, видео

Печатать
Просмотров: 208
http://www.dynamiteboy.com
Artist: Dynamite Boy
Song: Can't Help Falling In Love
Album: Other People Are Hell (hidden track)
Tabbed By: Nicole

This is a very easy song.  It's in standard E tuning.  Turn up the distortion.
You can figure out the strumming on your own.


E|---------------------------------------------------------------|
B|---------------------------------------------------------------|
G|--6-------------6----5----3----------6-------------------3----6-------6--|
D|--6-(let ring)--6----5----3-----4----6----6----4----6----3----6---6---6--|
A|--4-------------4----3----1-----4----4----6----4----6----1----4---6---4--|
E|--------------------------------2---------4----2----4-------------4------|


E|-----------------------------------------------------------------|
B|-----------------------------------------------------------------|
G|--6----5----3---------6-------------------3---------6---------6--|
D|--6----5----3----4----6----6----4----6----3----4----6----6----6--|
A|--4----3----1----4----4----6----4----6----1----4----4----6----4--|
E|-----------------2---------4----2----4---------2---------4-------|


E|------------------------------------------|
B|------------------------------------------|
G|--5----10----5---------5----10------------|
D|--5----10----5----3----5----10----4---6---|
A|--3----8-----3----3----3----8-----4---6---|
E|------------------1---------------2---4---|

E|-----------------------------------------------------------------|
B|-----------------------------------------------------------------|
G|--6----5----3---------6-------------------3---------6---------6--|
D|--6----5----3----4----6----6----4----6----3----4----6----6----6--|
A|--4----3----1----4----4----6----4----6----1----4----4----6----4--|
E|-----------------2---------4----2----4---------2---------4-------|

E|-----------------------------------|
B|-----------------------------------|
G|------------3---------6---------6--|
D|--4----6----3----4----6----6----6--|
A|--4----6----1----4----4----6----4--|
E|--2----4---------2---------4-------|

If you want, when the chords are played without the E-string, like this:
       E|-----|   You can make it sound      E|-----|
       B|-----|   fuller by holding down     B|-----|
       G|--6--|   the E-string on the same   G|--6--|
       D|--6--|   fret as the A-string,      D|--6--|
       A|--4--|   like this:                 A|--4--|
       E|-----|                              E|--4--|
That's just the way I like to play it because the sound is fuller and I think it
sounds better. Questions or comments please e-mail to KoRnNutz22@yahoo.com
Добавлено: 19.05.2012
Другие материалы по этой песне:
  • Аккорды и текст

Страница создана 19.05.2012
http://primanota.ru/dynamite-boy/cant-help-falling-in-love-chords.htm
Привет, Гость.
Предлагаем пройти революционный курс по гитаре.
Подарок от PrimaNota.Ru, забирай!