PrimaNota.ru - самый крупный в мире бесплатный архив песенных текстов, аккордов, табулатур и нот


Dylan Leblanc - Innocent Sinner - таба, видео

Регистрация Запомнить меня
Войти через:  Facebook Google Twitter Vk Yandex Mail.ru

Dylan Leblanc - Innocent Sinner - таба, видео

Печатать
Просмотров: 66
INTRO:

|----------0-------------0---3-------1---0---0-0---0-|
|------1-------------1-------0---0-----------1-1---1-|
|----2-------------2---------0---0-----------0-0---0-|
|--------------1-----------------0-----------2-2---2-|
|0---------------------------------------3---3-3---3-|
|----------------------------------------------------|

|--------0-1---0---------------------------------------0-|
|3---3-------------1-------0-----1-p-0-------------------|
|----0-----------------2-------1-------2---0-------2-----|
|----0-------------------------2-----------------2-------|
|--------------3---------------2-------------0-----------|
|3-------------------------0-----------------------------|

|0---0-0-0-0---0-0-0-3---3-1-0---0-0-0-X---0-1-0---0-0-0-|
|1---1-1-1-1---1-1-1-3---3-3-1---1-1-1-3---3-3-1---1-1-1-|
|2---2-2-2-2---2-2-2-0---0-0-0---0-0-0-0---0-0-0---0-0-0-|
|2---2-2-2-1---1-1-1-0---0-0-2---2-2-2-0-------2---2-2-2-|
|0---0-0-0-0---0-0-0-X---X-X-3---3-3-3-X-------3---3-3-3-|
|--------------------3---3-3-----------3-----------------|

|0---0-0-0-0---0-0-0-----0-0-0-----0-0-0-----------|
|0---0-0-0-1---1-1-1-----1-1-1-----1-1-1-----------|
|1---1-1-1-2---2-2-2-----2-2-2-----2-2-2-----------|
|2---2-2-2-2---2-2-2-----2-2-2-----2-2-2-----------|
|2---2-2-2-0---0-0-0-----0-0-0-0---0-0-0-----------|
|0---0-0-0-----------0-------------------0---0---3-|

VERSE 1:

|0---0-0-0-0---0-0-0-2---2-2-0-0---0-0-0-0-0---0-0-0---0-0-0-|
|1---1-1-1-1---1-1-1-3---3-3-3-3---3-3-0-0-0---0-0-1---1-1-1-|
|2---2-2-2-2---2-2-2-2---2-2-2-2---2-2-1-1-0---0-0-2---2-2-2-|
|2---2-2-2-1---1-1-1-0---0-0-0-0---0-0-2-2-1---0-0-3---3-3-3-|
|0---0-0-0-0---0-0-0-------------------2-2-2---2-2-3---3-3-3-|
|--------------------------------------0-0-X---X-X-----------|

|0-0-0---0-0-0---0-0-0-0---0-0---0---0-0-0-0---0-0-0-2---2-2-|
|0-0-0---0-0-1---1-1-1-1---1-1---1---1-1-1-1---1-1-1-3---3-3-|
|1-1-0---0-0-2---2-2-2-2---2-2---2---2-2-2-2---2-2-2-2---2-2-|
|2-2-1---0-0-3---3-3-3-3---3-3---2---2-2-2-1---1-1-1-0---0-0-|
|2-2-2---2-2-3---3-3-3-3---3-3---0---0-0-0-0---0-0-0---------|
|0-0-X---X-X-------------------------------------------------|

|0-0---0-0-0-0-0---0-0-0---0-0-0-0-0-0---0-0-0---0-0-0-0-0-0-0---|
|3-3---3-3-0-0-0---0-0-1---1-1-1-0-0-0---0-0-1---1-1-1-0-0-0-0-0-|
|2-2---2-2-1-1-0---0-0-2---2-2-2-1-1-0---0-0-2---2-2-2-1-1-2-2---|
|0-0---0-0-2-2-1---0-0-3---3-3-3-2-2-1---0-0-3---3-3-3-2-2-2-2---|
|----------2-2-2---2-2-3---3-3-3-2-2-2---2-2-3---3-3-3-2-2-2-2---|
|----------0-0-X---X-X-----------0-0-X---X-X-----------0-0-0-0---|

CHORUS:

|1---1-1-1-3---3-3-3-0---0-0-0-0---0-0-0-1---1-1-1-3---3-3-3-|
|3---3-3-3-3---3-3-3-1---1-1-1-1---1-1-1-2---2-2-2-3---3-3-3-|
|2---2-2-2-0---0-0-0-0---0-0-0-2---2-2-2-3---3-3-3-0---0-0-0-|
|0---0-0-0-0---0-0-0-2---2-2-2-2---2-2-2-0---0-0-0-0---0-0-0-|
|----------X---X-X-X-3---3-3-3-0---0-0-0-----------X---X-X-X-|
|----------3---3-3-3-------------------------------3---3-3-3-|

|0---0-0-0-0---0-0-0-1---1-1-1-3---3-3-3-0---0-0-0-0---0-0-0-|
|1---1-1-1-1---1-1-1-2---2-2-2-3---3-3-3-0---0-0-0-1---1-1-1-|
|0---0-0-0-2---2-2-2-3---3-3-3-0---0-0-0-1---1-1-1-2---2-2-2-|
|2---2-2-2-2---2-2-2-0---0-0-0-0---0-0-0-2---2-2-2-2---2-2-2-|
|3---3-3-3-0---0-0-0-----------X---X-X-X-2---2-2-2-0---0-0-0-|
|------------------------------3---3-3-3-0---0-0-0-----------|

|0---0-0-0-0-0-0-0-0-0-------0-0-0-0-0-0-0---0-0-0-----0-0-0-----|
|1---1-1-1-0-0-0-0-0-0-1-----0-0-0-0-0-0-2---2-2-2-----2-2-2-----|
|2---2-2-2-1-1-2-2-2-2---2---1-1-2-2-2-2-2---2-2-2-----2-2-2-----|
|2---2-2-2-2-2-2-2-2-2-------2-2-2-2-2-2-2---2-2-2-----2-2-2-----|
|0---0-0-0-2-2-2-2-----3-----2-2-2-2-----0---0-0-0-----0-0-0-0---|
|----------0-0-0-0-----------0-0-0-0---------------0-------------|

|0-0-0-----------|
|2-2-2-----------|
|2-2-2-----------|
|2-2-2-----------|
|0-0-0-----------|
|------0---0---3-|

VERSE 2:

|0---0-0-0-0---0-0-0-2---2-2-0-0---0-0-0-0-0---0-0-0---0-0-0-|
|1---1-1-1-1---1-1-1-3---3-3-3-3---3-3-0-0-0---0-0-1---1-1-1-|
|2---2-2-2-2---2-2-2-2---2-2-2-2---2-2-1-1-0---0-0-2---2-2-2-|
|2---2-2-2-1---1-1-1-0---0-0-0-0---0-0-2-2-1---0-0-3---3-3-3-|
|0---0-0-0-0---0-0-0-------------------2-2-2---2-2-3---3-3-3-|
|--------------------------------------0-0-X---X-X-----------|

|0-0-0---0-0-0---0-0-0-0---0-0-0-0---0-0-0-2---2-2-0-0---0-0-|
|0-0-0---0-0-1---1-1-1-1---1-1-1-1---1-1-1-3---3-3-3-3---3-3-|
|1-1-0---0-0-2---2-2-2-2---2-2-2-2---2-2-2-2---2-2-2-2---2-2-|
|2-2-1---0-0-3---3-3-3-2---2-2-2-1---1-1-1-0---0-0-0-0---0-0-|
|2-2-2---2-2-3---3-3-3-0---0-0-0-0---0-0-0-------------------|
|0-0-X---X-X-------------------------------------------------|

|0-0-0---0-0-0---0-0-0-0-0-0---0-0-0-------------------0-0-0-0---|
|0-0-0---0-0-1---1-1-1-0-0-0---0-0-1-----------0---1---0-0-0-0-0-|
|1-1-0---0-0-2---2-2-2-1-1-0---0-0-2---1---2-----2---2-1-1-2-2---|
|2-2-1---0-0-3---3-3-3-2-2-1---0-0-3-----2---2---------2-2-2-2---|
|2-2-2---2-2-3---3-3-3-2-2-2---2-2-3---2---2---2---3---2-2-2-2---|
|0-0-X---X-X-----------0-0-X---X-X---------------------0-0-0-0---|

FORM:
INTRO
VERSE 1
CHORUS
VERSE 2
CHORUS 
INTRO

Добавлено: 14.12.2015
Другие материалы по этой песне:
  • Аккорды и текст

Страница создана 14.12.2015
http://primanota.ru/dylan-leblanc/innocent-sinner-chords.htm
Привет, Гость.
Предлагаем пройти революционный курс по гитаре.
Подарок от PrimaNota.Ru, забирай!