PrimaNota.ru - самый крупный в мире бесплатный архив песенных текстов, аккордов, табулатур и нот


Dying Fetus - Your Treachery Will Die With You - текст песни, таба, видео

Регистрация Запомнить меня
Войти через:  Facebook Google Twitter Vk Yandex Mail.ru

Dying Fetus - Your Treachery Will Die With You - текст песни, таба, видео

Печатать
Просмотров: 324
Авторы музыки: John Gallagher
Авторы текста: Sean Beasley
-------------------------------------------------------------------------------
              Your Treachery Will Die With You - Dying Fetus
-------------------------------------------------------------------------------
Tabbed by:  Jon Pina
Email:  el_presidente778@yahoo.com

I have here the section with the solo starting at approximately 1:08 and until just
the solo.  I tried figuring out the intro but I'm not sure if it sounds right.  For some of
parts there is no way in hell I can play them to hear if they actually sound right so 
I have is what sounds right on guitar pro.  If someone could give me some feedback so I
make corrections I would appreciate it.  Hopefully this will get you started.  Goodluck.
If you want my guitar pro version, just shoot me an email.

Tuning:  C# Standard
~150 bpm  4/4

1:08  (Straight Eighth notes all the way)  * = palm mute
C#|-----------------------|-----------------------|
G#|-----------------------|-----------------------|
E||-----------------------|-----------------------|
B||-----------------------|-----------------------|
F#|-5--4--2--4------------|-----------------------|
C#|-3--2--0--2--0--0--3p-0|-2--0--0--2p-0--1--0--0|
                *  *           *  *           *  *

  This part is play 3 times.  It's identical to the first 2 measures
  except there are single notes instead of chords.

C#|-----------------------|-----------------------|
G#|-----------------------|-----------------------|
E||-----------------------|-----------------------|
B||-----------------------|-----------------------|
F#|-----------------------|-----------------------|
C#|-3--2--0--2--0--0--3p-0|-2--0--0--2p-0--1--0--0|
                *  *           *  *           *  *
1:20  ~120 bpm  Not sure if the chords are played but either way their definitely palm
unlike the other times.
C#|-----------------------|-----------------------|
G#|-----------------------|-----------------------|
E||-----------------------|-----------------------|
B||-----------------------|-----------------------|
F#|-5--4--2--4------------|-----------------------|
C#|-3--2--0--2--0--0--2p-0|-1p-0--0--3p-0--1p-0--0|
    *  *  *  *  *  *              *              *

  Again, sounds good on guitar pro.  Still all eighth notes except for the obvious ones
are 32nd.  Haha good luck.
C#|-12-15-14-12-----------------------------------------------|
G#|-------------15-14-12--------------------------------------|
E||----------------------14-12-11-----------------------------|
B||-------------------------------14-12-10--------------------|
F#|----------------------------------------14-12-11-----------|
C#|-------------------------------------------------0--0--2p-0|
                                                    *  *

C#|-----------------------|
G#|-----------------------|
E||-----------------------|
B||-----------------------|
F#|-----------------------|
C#|-1p-0--0--3p-0--1p-0--0|
          *              *
C#|-----------------------|-----------------------|
G#|-----------------------|-----------------------|
E||-----------------------|-----------------------|
B||-----------------------|-----------------------|
F#|-5--4--2--4------------|-----------------------|
C#|-3--2--0--2--0--0--2p-0|-1p-0--0--3p-0--1p-0--0|
    *  *  *  *  *  *              *              *

C#|-12-15-14-12-----------------------------------------------|
G#|-------------15-14-12--------------------------------------|
E||----------------------14-12-11-----------------------------|
B||-------------------------------14-12-10--------------------|
F#|----------------------------------------14-12-11-----------|
C#|-------------------------------------------------0--0--2p-0|
                                                    *  *
C#|-----------------------|
G#|-----------------------|
E||-----------------------|
B||-----------------------|
F#|-----------------------|
C#|-1p-0--0--3p-0--1p-0--0|
          *              *

~100 bpm
This is probably not right.  32nd notes from here on out.

C#|------------19p15-------------------1519p1519p15-----|
G#|-----------------17---------------17------------17---|
E||--------------------16---------16-----------------16-|
B||-----------------------17---17-----------------------|
F#|-5--4--2--4--------------19--------------------------|
C#|-3--2--0--2------------------------------------------|

C#|----------------15-19p15-19p15-18p14---------------------14-18p14-18p14-----------------14-|
G#|-------------17----------------------16---------------16---------------16-------------16---|
E||----------16----------------------------15---------15---------------------15--------15-----|
B||-17----17----------------------------------16---16--------------------------16----16-------|
F#|----19----------------------------------------18-------------------------------18----------|
C#|-------------------------------------------------------------------------------------------|

C#|-18p14-18p14-15p11----------------------15p11-15p11------------------15p11-15p11-12p8-|
G#|-------------------13----------------13-------------13-------------13-----------------|
E||----------------------12----------12------------------12---------12-------------------|
B||-------------------------13----13------------------------13----13---------------------|
F#|----------------------------15------------------------------15------------------------|
C#|--------------------------------------------------------------------------------------|

                                                              |Repeat
C#|--------------------8-12p8-12p8-----------------8-12p8-12p8-19p15-------|
G#|-10--------------10-------------10------------10------------------17----|
E||----9----------9-------------------9---------9-----------------------16-|
B||------10----10-----------------------10----10---------------------------|
F#|---------12-----------------------------12------------------------------|
C#|------------------------------------------------------------------------|

Not sure about that ending, but I think it might be a quick ascend/descend about that
from the 1:24 part.


************************************

| /   slide up
| \   slide down
| h   hammer-on
| p   pull-off
| ~   vibrato
| +   harmonic
| x   Mute note
| b   Bend
| pb  Pre-bend
| br  Bend release
| pbr Pre-bend release
| brb Bend release bend

************************************
Добавлено: 25.06.2012
Другие материалы по этой песне:

Страница создана 22.04.2012
http://primanota.ru/dying-fetus/your-treachery-will-die-with-you-chords.htm
Привет, Гость.
Предлагаем пройти революционный курс по гитаре.
Подарок от PrimaNota.Ru, забирай!