PrimaNota.ru - самый крупный в мире бесплатный архив песенных текстов, аккордов, табулатур и нот


Dying Fetus - Vomiting The Fetal Embryo - текст песни, таба, видео

Регистрация Запомнить меня
Войти через:  Facebook Google Twitter Vk Yandex Mail.ru

Dying Fetus - Vomiting The Fetal Embryo - текст песни, таба, видео

Печатать
Просмотров: 98
Band: Dying Fetus 
Album: Infatutation With Malevolence 
Song:  Vomiting The Fetal Embryo 




.  - palm mute           /  - slide up to 
\  - slide down to       ~  - vibrato 
h  - hammer on           b  - Bend 
p  - pull off            Suffixes for bend 
t  - tap                 f  - full bend    h - half bend 
ph - pinched harmonic    q  - quarter bend t - tap bend 
*  - see comment         ^  - Hold bend    r release bend 
x  - Stuccatto           ~  - vibrato bend 
,  - slight palm mute    () - ghost note, sustained note 
"  - tremolo note        <> - Trill 

Tuning C# 


Intro Guitar 1 
|----------------------------------------| 
|----------------------------------------| 
|-----------------------------------2"---| 
|---------------------------3"2"------1"-| 
|-4-----6-5--7-----9-8----------4"3"-----| 
|-2-1-1-4-3--5-1-1-7-6--0"1"-------------| 
| 
| 
| 
| 
|Guitar 2 
|----------------------------------------| 
|----------------------------------------| 
|-----------------------------------2"---| 
|---------------------------3"2"------1"-| 
|-------------------------------4"3"-----| 
|-----------------------0"1"-------------| 


Riff 1a 
|----------------------------------------| 
|----------------------------------------| 
|-----------------------------------2"---| 
|---------------------------3"2"------1"-| 
|-4-----6-5--7-----9-8----------4"3"-----| 
|-2-1-1-4-3--5-1-1-7-6--0"1"-------------| 



Riff 1b PLay this 2x  |  and this 4x      | 
|---------------------|-------------------| 
|---------------------|-------------------| 
|---------------------|--------------2"---| 
|---------------------|------3"2"------1"-| 
|-4-----6-5--7-----9-8|----------4"3"-----| 
|-2-1-1-4-3--5-1-1-7-6|--0"1"-------------| 



Pre riff 2 Guitar 1 
|---------------------------------| 
|---------------------------------| 
|-------------2---------------2---| 
|-----3-2-------1-----3-2-------1-| 
|---------4-3-------------4-3-----| 
|-0-1-------------0-1-------------| 
| 
| 
| 
| 
|Guitar 2 
|---------------------------------| 
|---------------------------------| 
|-----------------------------2---| 
|-------------------------------1-| 
|-------------------------4-3-----| 
|---------------------------------| 


Riff 2 
|---------------------------------| 
|---------------------------------| 
|-------------2---------------2---| 
|-----3-2-------1-----3-2-------1-| 
|---------4-3-------------4-3-----| 
|-0-1-------------0-1-------------| 




Pre riff 2 Guitar 1 
|---------------------------------| 
|---------------------------------| 
|-------------2---------------2---| 
|-----3-2-------1-----3-2-------1-| 
|---------4-3-------------4-3-----| 
|-0-1-------------0-1-------------| 
| 
| 
| 
| 
|Guitar 2 
|---------------------------------| 
|---------------------------------| 
|-----------------------------2---| 
|-------------------------------1-| 
|-------------------------4-3-----| 
|---------------------------------| 


Riff 2 
|---------------------------------| 
|---------------------------------| 
|-------------2---------------2---| 
|-----3-2-------1-----3-2-------1-| 
|---------4-3-------------4-3-----| 
|-0-1-------------0-1-------------| 


Pre Riff 3 Guitar 1 
|---------------------------------| 
|---------------------------------| 
|---------------------------------| 
|---------------------------------| 
|-2-3-1-2-1-3-4-3-2-3-1-2-1-3-4-3-| 
|-2-3-1-2-1-3-4-3-2-3-1-2-1-3-4-3-| 
| 
| 
| 
|Guitar 2 
|---------------------------------| 
|---------------------------------| 
|---------------------------------| 
|---------------------------------| 
|-------------------------1-3-4-3-| 
|-------------------------1-3-4-3-| 


Riff 3 
|---------------------------------| 
|---------------------------------| 
|---------------------------------| 
|---------------------------------| 
|-2-3-1-2-1-3-4-3-2-3-1-2-1-3-4-3-| 
|-2-3-1-2-1-3-4-3-2-3-1-2-1-3-4-3-| 


Riff 4  ( first time, only guitar 1) 
|------------------------------------------------------| 
|------------------------------------------------------| 
|------------------------------------------------------| 
|------------------------------------------------------| 
|----------------------2222----------------------------| 
|-0-1-2-3-1111-0-1-2-3------0-1-2-3-1111-0-1-2-3-1122--| 



Fill 
|---------------------------| 
|---------------------------| 
|---------------------------| 
|-----------------------2ph-| 
|-2--9--8-------3-2-1-0-----| 
|-0--7--6---1-2-------------| 
            . . . . . . 


Riff 5 under solo 
|---------------------------| 
|---------------------------| 
|---------------------------| 
|-----------------------2ph-| 
|-2--9-10-8-------3-2-1-0---| 
|-0--7-8--6---1-2-----------| 
               . . . . . . 


Riff 6 under solo 
|-----------------| 
|-----------------| 
|-----------------| 
|-------------2ph-| 
|-----3-2-1-0-----| 
|-1-2-------------| 
  . . . . . . 


Fill 
|---------------| 
|---------------| 
|---------------| 
|---------------| 
|-----3-2-1-0-2-| 
|-1-2---------0-| 
  . . . . . . 



Riff 7 ( first time, only guitar 1) 
|----------------------------------| 
|----------------------------------| 
|----------------------------------| 
|--3-4-----2-3-----3-4-----2-3-----| 
|--3-4-3-4-2-3-3-2-3-4-3-4-2-3-3-2-| 
|------3-4-----3-2-----3-4-----3-2-| 



Ending (first time, only guitar 1 

 4x                   1x 
|-------------------|---| 
|-------------------|---| 
|--------------2"---|---| 
|------3"2"------1"-|---| 
|----------4"3"-----|-2-| 
|--0"1"-------------|-0-| 



End.
Добавлено: 21.07.2013
Другие материалы по этой песне:
  • Аккорды и текст

Страница создана 14.03.2012
http://primanota.ru/dying-fetus/vomiting-the-fetal-embryo-chords.htm
Привет, Гость.
Предлагаем пройти революционный курс по гитаре.
Подарок от PrimaNota.Ru, забирай!