PrimaNota.ru - самый крупный в мире бесплатный архив песенных текстов, аккордов, табулатур и нот


Dying Fetus - Vominting The Fetal Embryo - таба, видео

Регистрация Запомнить меня
Войти через:  Facebook Google Twitter Vk Yandex Mail.ru

Dying Fetus - Vominting The Fetal Embryo - таба, видео

Печатать
Просмотров: 101
Уроки эстрадного вокала в Санкт-Петербурге
Band: Dying Fetus
Album: Infatutation with malevolence
Song:  Vominting the fetal embryo

.  - palm mute           /  - slide up to
\  - slide down to       ~  - vibrato
h  - hammer on           b  - Bend
p  - pull off            Suffixes for bend
t  - tap                 f  - full bend    h - half bend
ph - pinched harmonic    q  - quarter bend t - tap bend
*  - see comment         ^  - Hold bend    r release bend
x  - Stuccatto           ~  - vibrato bend
,  - slight palm mute    () - ghost note, sustained note
"  - tremolo note        <> - Trill

Intro Guitar 1
|----------------------------------------|
|----------------------------------------|
|-----------------------------------2"---|
|---------------------------4"3"2"1"--1"-|
|-4-----6-5--7-----9-8-------------------|
|-2-1-1-4-3--5-1-1-7-6--0"1"-------------|
|
|
|
|
|Guitar 2
|----------------------------------------|
|----------------------------------------|
|-----------------------------------2"---|
|---------------------------4"3"2"1"--1"-|
|----------------------------------------|
|-----------------------0"1"-------------|


Riff 1a
|----------------------------------------|
|----------------------------------------|
|-----------------------------------2"---|
|---------------------------4"3"2"1"--1"-|
|-4-----6-5--7-----9-8-------------------|
|-2-1-1-4-3--5-1-1-7-6--0"1"-------------|



Riff 1b PLay this 2x  |  and this 4x      |
|---------------------|-------------------|
|---------------------|-------------------|
|---------------------|--------------2"---|
|---------------------|------4"3"2"1"--1"-|
|-4-----6-5--7-----9-8|-------------------|
|-2-1-1-4-3--5-1-1-7-6|--0"1"-------------|



Pre riff 2 Guitar 1
|---------------------------------|
|---------------------------------|
|-------------2---------------2---|
|-----4-3-2-1---1-----4-3-2-1---1-|
|---------------------------------|
|-0-1-------------0-1-------------|
|
|
|
|
|Guitar 2
|---------------------------------|
|---------------------------------|
|-----------------------------2---|
|-------------------------2-1---1-|
|---------------------------------|
|---------------------------------|


Riff 2
|---------------------------------|
|---------------------------------|
|-------------2---------------2---|
|-----4-3-2-1---1-----4-3-2-1---1-|
|---------------------------------|
|-0-1-------------0-1-------------|



Pre riff 2 Guitar 1
|---------------------------------|
|---------------------------------|
|-------------2---------------2---|
|-----4-3-2-1---1-----4-3-2-1---1-|
|---------------------------------|
|-0-1-------------0-1-------------|
|
|
|
|
|Guitar 2
|---------------------------------|
|---------------------------------|
|-----------------------------2---|
|-------------------------2-1---1-|
|---------------------------------|
|---------------------------------|


Riff 2
|---------------------------------|
|---------------------------------|
|-------------2---------------2---|
|-----4-3-2-1---1-----4-3-2-1---1-|
|---------------------------------|
|-0-1-------------0-1-------------|


Pre Riff 3 Guitar 1
|---------------------------------|
|---------------------------------|
|---------------------------------|
|---------------------------------|
|-2-3-1-2-1-3-4-3-2-3-1-2-1-3-4-3-|
|-2-3-1-2-1-3-4-3-2-3-1-2-1-3-4-3-|
|
|
|
|Guitar 2
|---------------------------------|
|---------------------------------|
|---------------------------------|
|---------------------------------|
|-------------------------1-3-4-3-|
|-------------------------1-3-4-3-|


Riff 3
|---------------------------------|
|---------------------------------|
|---------------------------------|
|---------------------------------|
|-2-3-1-2-1-3-4-3-2-3-1-2-1-3-4-3-|
|-2-3-1-2-1-3-4-3-2-3-1-2-1-3-4-3-|


Riff 4  ( first time, only guitar 1)
|------------------------------------------------------|
|------------------------------------------------------|
|------------------------------------------------------|
|------------------------------------------------------|
|----------------------2222----------------------------|
|-0-1-2-3-1111-0-1-2-3------0-1-2-3-1111-0-1-2-3-1122--|



Fill
|---------------------------|
|---------------------------|
|---------------------------|
|-----------------------2ph-|
|-2--9--8-------3-2-1-0-----|
|-0--7--6---1-2-------------|
            . . . . . .


Riff 5 under solo
|---------------------------|
|---------------------------|
|---------------------------|
|-----------------------2ph-|
|-2--9-10-8-------3-2-1-0---|
|-0--7-8--6---1-2-----------|
               . . . . . .


Riff 6 under solo
|-----------------|
|-----------------|
|-----------------|
|-------------2ph-|
|-----3-2-1-0-----|
|-1-2-------------|
  . . . . . .


Fill
|---------------|
|---------------|
|---------------|
|---------------|
|-----3-2-1-0-2-|
|-1-2---------0-|
  . . . . . .



Riff 7 ( first time, only guitar 1)
|----------------------------------|
|----------------------------------|
|----------------------------------|
|--3-4-----2-3-----3-4-----2-3-----|
|--3-4-3-4-2-3-3-2-3-4-3-4-2-3-3-2-|
|------3-4-----3-2-----3-4-----3-2-|



Ending (first time, only guitar 1

 4x                   1x
|-------------------|---|
|-------------------|---|
|--------------2"---|---|
|------4"3"2"1"--1"-|---|
|-------------------|-2-|
|--0"1"-------------|-0-|
Добавлено: 27.04.2012
Другие материалы по этой песне:
  • Аккорды и текст

Страница создана 27.04.2012
http://primanota.ru/dying-fetus/vominting-the-fetal-embryo-chords.htm
Привет, Гость.
Предлагаем пройти революционный курс по гитаре.
Подарок от PrimaNota.Ru, забирай!