PrimaNota.ru - самый крупный в мире бесплатный архив песенных текстов, аккордов, табулатур и нот


Dying Fetus - Vengeance Unleashed - аккорды и текст, таба, видео

Регистрация Запомнить меня
Войти через:  Facebook Google Twitter Vk Yandex Mail.ru

Dying Fetus - Vengeance Unleashed - аккорды и текст, таба, видео

Печатать
Просмотров: 174
Vengeance Unleashed
Dying Fetus
Dying Fetus - Vengeance Unleashed
Tabbed by Marino Manarin
e-mail: andylarocque@bol.com.br

ohh shit, this sound kicks a lot....
Listen to the sound for TEMPO....
Tune to C#

riff 1 
4 times
|-------------------------------------------------------------------------------|
|-------------------------------------------------------------------------------|
|-------------------------------------------------------------------------------|
|-------------------------------------------------------------------------------|
|--4--4--4444--3/4-4--4444--4-3-4--4--4--4444--6/7/6-6666-6/7/6/7---------------|
|--2--2--2222--1/2-2--2222--2-1-2--2--2--2222--4/5/4-4444-4/5/4/5---------------|
 ....         ....               ....        ....

riff 2
4 times                            the last time
|--------------------------------------------------|----------------------------|
|--------------------------------------------a.h---|----------------------------|
|---------------------------------------------3---|----------------------------|
|--------------------------------------------------|----------------------------|
|--4--3--2--3--4--3--2--3--4--3--2--3--4--2--------|---4---2--4--5--6---4-------|
|--2--1--0--1--2--1--0--1--2--1--0--1--2--0--------|---2---0--2--3--4---2-------|
 .  .  .  .  .  .

turne to riff 1
turne to riff 2 and do the last time


riff 3 - this riff is so fucking brutal....hailllll.
2 times
|----------------------------------------------------------------------------------------------------------------|
|----------------------------------------------------------------------------------------------------------------|
|-------@---@---@------@---@----------@--@--@--@--@-----------@---@---@------@---@-----@--@---@---@--------------|
|---@--11--12--11--@---11--9--@---@---9--7--6--7--6--@--@--@--11--12--11--@--11--9--@--9--11--12--11--@---@---@--|
|---9--------------12---------12--11-----------------9--8--9--------------12--------12----------------12--11--9--|
|----------------------------------------------------------------------------------------------------------------|



riff 4
2 times
|-------------------------------------------------------------------------------------------------------------------|
|-------------------------------------------------------------------------------------------------------------------|
|-------------------------------------------------------------------------------------------------------------------|
|--------------------------------------------------------------------------------------------------@--@--@--@-------|
|------444-555-444-----444-222---------222-----------------------------444-555-444-----444-222-----2--4--5--4-@----|
|--222-------------555---------555-444-----555-444-555-444-222-111-222-------------555---------555------------5-4---|

turne to riff 3 and do 2 times


riff 5
4 times too
|--------------------------------------------------------------------------------|
|--------------------------------------------------------------------------------|
|--------------------------------------------------------------------------------|
|--------------------------------------------------------------------------------|
|--@------6---7------4--3--2--3--4--3--2--3--4--3--2--3--4--3--2--3--------------|
|--2------4---5------2--1--0--1--2--1--0--1--2--1--0--1--2--1--0--1--------------|




riff 6
1 times
|--------------------------------------------------------------------------------------------------------------|
|--------------------------------------------------------------------------------------------------------------|
|-----------------------------------------------------------9t5h89t5-------------------------------------------|
|------------------------------------------------------------------9t5h89t5-------10t6h9t106-------------------|
|-------------------------------------------------------------------------9t5h8t95---------10t6h9t106----------|
|---000-000-000-222-000-000-000-000-444-000-222-000-222....-----------------------------------------9t5h89t5---|



riff 7
this riif goes till song end.
|-------------------------------------------------------------------------------------------------------------|
|-----------------------------------------------------------9t5h89t5------------------------------------------|
|------------------------------------------------------------------9t5h89t5-------10t6h9t106------------------|
|-------------------------------------------------------------------------9t5h89t5---------10t6h9t106---------|
|---------------------------------------------------------------------------------------------------9t5h89t5--|
|---000-000-000-222-000-000-000-000-444-000-222-000-222....---------------------------------------------------|















|
Добавлено: 21.09.2013
Другие материалы по этой песне:

Страница создана 20.03.2012
http://primanota.ru/dying-fetus/vengeance-unleashed-chords.htm
Привет, Гость.
Предлагаем пройти революционный курс по гитаре.
Подарок от PrimaNota.Ru, забирай!