PrimaNota.ru - самый крупный в мире бесплатный архив песенных текстов, аккордов, табулатур и нот


Dying Fetus - Streaks Of Blood - таба, видео

Регистрация Запомнить меня
Войти через:  Facebook Google Twitter Vk Yandex Mail.ru

Dying Fetus - Streaks Of Blood - таба, видео

Печатать
Просмотров: 177
Band:  Dying Fetus
Album: Grotesque Impalement
Song:  Streaks of blood

Copyright (c)  Blunt Force Records (2000)
Version 1.2 – May 21, 2005

Transcribed By: Nicolas Rouleau.
Email: insineratemail@hotmail.com

.  - palm mute           /  - slide up to
\  - slide down to       ~  - vibrato
h  - hammer on           b  - Bend
p  - pull off            Suffixes for bend
t  - tap                 f  - full bend    h - half bend
ph - pinched harmonic    q  - quarter bend t - tap bend
*  - see comment         ^  - Hold bend    r release bend
x  - Stuccatto           ~  - vibrato bend
,  - slight palm mute    () - ghost note, sustained note
"  - tremolo note        tr - Trill


Tunning C# F# B E G# C#

========== Read This ==========

Listen to the song to get the right tempo and riff order.


Riff 1A                 1B                   Fill
|----------------------|-------------------|------|
|----------------------|-------------------|------|
|----------------------|-------------------|------|
|-4--------------------|-4-----------------|------|
|-2----25---3---2---2--|-2----25---3---2---|-/14\-|
|------03---1---0---0--|------03---1---0---|-/12\-|
       .            .          .

Riff 2
|---------------------------------|
|---------------------------------|
|---------------------------------|
|---------------------------------|
|-2-2-2-2-4-2-2-2-2-2-2-2-5/7-5/8-|
|-0-0-0-0-2-0-0-0-0-0-0-0-3/5-3/6-|
  . . . . . . . . . . . .


Riff 1C
|-------------|
|-------------|
|-------------|
|-4-----------|
|-2----25---3-|
|------03---1-|
       .


Riff 3
|-----------------------------------------|
|-----------------------------------------|
|-----------------------------------------|
|-----------------------------------------|
|-2--3----------------4--8----------------|
|-0001—0000-0000-0000-2006—0000-0000-0000-|
   ..  .... .... ....  ..  .... .... ....


Riff 4
|-------------------|
|-------------------|
|-------------------|
|-------------------|
|-------------4---8-|
|-0000-1-0000-2-0-6-|
  .... . ....   .


Riff 5
|----------|
|----------|
|----------|
|----------|
|-22-33-55-|
|-00-11-33-|


Riff 6
|-----------------------------------------|
|-----------------------------------------|
|-----------------------------------------|
|-----------------------------------------|
|-----------------------------------------|
|-0000-0000-0000-0000-1111-1111-4444-3333-|
  .... .... .... .... .... .... .... ....


Riff 7
|------------------|
|------------------|
|------------------|
|------------------|
|-4-6-4-5-7-44-7-8-|
|-2-4-2-3-5-22-5-6-|
  . . . . . .. .


Riff 8A           8B                      8C
|----------------|----------------------|---------------------|
|----------------|----------------------|---------------------|
|----------------|----------------------|---------------------|
|----------------|----------------------|---------------------|
|------------3-3-|-7-7-7-7-8-7-10---3-3-|-7-7-7-7-6-4-2---3-3-|
|-0000-1-000-1-1-|------------------1-1-|-----------------1-1-|
  .... . ... . .   . . . . . . .    . .   . . . . . . .   . .


Riff 9A
|-----------------------------|
|-----------------------------|
|-----------------------------|
|-----------------------------|
|-2-2-3-2---------------------|
|-0-0-1-0—3333-2222-3333-5555-|
  . . . . .... .... .... ....


Riff 10
|-----------|
|-----------|
|-----------|
|-----------|
|-5-4-5-7bq-|
|-3-2-3-5bq-|
  . . .


Riff 11
|-----------------------------|
|-----------------------------|
|-----------------------------|
|-----------------------------|
|-2-------2---pick-slide-h12\-|
|-0-------0---pick-slide—h12\-|


Riff 9B
|--------------------------------|
|--------------------------------|
|--------------------------------|
|--------------------------------|
|-2-2-3--------------------------|
|-0-0-1-0000—3333-2222-3333-5555-|
  . . . .... .... .... .... ....
Добавлено: 26.06.2012
Другие материалы по этой песне:

Страница создана 23.04.2012
http://primanota.ru/dying-fetus/streaks-of-blood-chords.htm
Привет, Гость.
Предлагаем пройти революционный курс по гитаре.
Подарок от PrimaNota.Ru, забирай!