PrimaNota.ru - самый крупный в мире бесплатный архив песенных текстов, аккордов, табулатур и нот


Dying Fetus - Homicidal Retribution - текст песни, таба, бас-таба, видео

Регистрация Запомнить меня
Войти через:  Facebook Google Twitter Vk Yandex Mail.ru

Dying Fetus - Homicidal Retribution - текст песни, таба, бас-таба, видео

Печатать
Просмотров: 198
Dying Fetus
Homicidal Retribution
War of Atrition
h-hammer on
p-pull of

c#-----------------------------------------------------------------------|
g#-----------------------------------------------------------------------|
e------------------------------------------------------------------------|
b------------------------------------------------------------------------|
f#-----7--10--7--8------------------7--10--7--8--------------------------|
c#-------------------10--12--8--10---------------10--12--8--10-----------|

c#-----------------------------------------------------------------------|
g#-----------------------------------------------------------------------|
e------------------------------------------------------------------------|
b-------------------------------------------7h10p7-----------------------|
f#----7h10p7--6h9p6----7h10p7--6h9p6-------------------------------------|
c#-0-----------------0--------------------------------7h10p7-------------|

c#-----------------------------------------------------------------------|
g#-----------------------------------------------------------------------|
e------------------------------------------------------------------------|
b------------------------------------------------------------------------|
f#----7h10p7--6h9p6------------------------------------------------------|
c#-0----------------0-7-7-7--10-10-10--0-0-0---3h6p3---------------------|

Play 8 times!!!!
Добавлено: 12.06.2012
Другие материалы по этой песне:

Страница создана 08.06.2012
http://primanota.ru/dying-fetus/homicidal-retribution-chords.htm
Привет, Гость.
Предлагаем пройти революционный курс по гитаре.
Подарок от PrimaNota.Ru, забирай!