PrimaNota.ru - самый крупный в мире бесплатный архив песенных текстов, аккордов, табулатур и нот


Dying Fetus - Born In Sodom - текст песни, таба, видео

Регистрация Запомнить меня
Войти через:  Facebook Google Twitter Vk Yandex Mail.ru

Dying Fetus - Born In Sodom - текст песни, таба, видео

Печатать
Просмотров: 125
.  - palm mute           /  - slide up to
\  - slide down to       ~  - vibrato
h  - hammer on           b  - Bend
p  - pull off                 Suffixes for bend
t  - right hand tap      f  - full bend    h - half bend
ph - pinched harmonic    q  - quarter bend t - tap bend
*  - see comment         ^  - Hold bend    r release bend
x  - Stuccatto           ~  - vibrato bend
,  - slight palm mute    () - ghost note, sustained note
"  - tremolo note        tr - Trill
=  - sustained note


Tunning C# F# B E G# C#


 Riff 1
|-----------------------------------------|
|-----------------------------------------|
|-----------------------------------------|
|------5555-3333--------------------------|
|----------------5555-3333-6666-5555-3333-|
|-1111------------------------------------|

-------------------------------|
-------------------------------|
-------------------------------|
-----------5555-6666-5555-5555-|
------3333---------------------|
-1111--------------------------|

 Riff 2A
|----------------------|---------------------------------|
|----------------------|---------------------------------|
|----------------------|---------------------------------|
|----------------------|-----------------------------ph--|
|--3----7----3---6-5-7-|--3-—3/7-7/3-5----------------5~-|
|-11—-155--511--14-3-5-|-11-—1/5-5/1-3-4444-4444-4444----|
  .   ..   ..   .        .             .... .... ....


 Riff 2B
|----------------------|---------------------------------|
|----------------------|-----------------------------ph--|
|----------------------|------------------------------5~-|
|----------------------|---------------------------------|
|--3----7----3---6-5-7-|--3—-3/7-7/3-5-------------------|
|-11—-155--511--14-3-5-|-11—-1/5-5/1-3-4444-4444-4444----|
  .   ..   ..   .        .             .... .... ....

 Riff 3A                         3B
|-----------14h17p14-----------|-------14----------16-----|
|---------14--------14---------|-----14--14------14--14---|
|-------14------------14-------|---14------14--14------14-|
|-----14----------------14-----|-14----------14-----------|
|---15--------------------15---|--------------------------|
|-16------------------------16-|--------------------------|


 Gtr1 Riff 4 2X
|----------------------|--------------------|
|----------------------|--------------------|
|----------------------|--------------------|
|----------------------|--------------------|
|-33--377--733-3-6-5-7-|-33—-3/7-7/3-5-11---|
|-11--155--511-1-4-3-5-|-11—-1/5-5/1-3-11---|
|                                           |
|                                           |
| Gtr1 Riff 4B 1X                           |
|----------------------|--------------------|
|----------------------|--------------------|
|----------------------|--------------------|
|----------------------|--------------------|
|-3333-7777-3333-6-5-7-|-3333-3/7-7/3-5-11--|
|-1111-5555-1111-4-3-5-|-1111-1/5-5/1-3-11--|
| .... .... ....         ....               |
|                                           |
| Gtr1 Riff 4C 1X                           |
|----------------------|--------------------|
|----------------------|--------------------|
|----------------------|--------------------|
|----------------------|--------------------|
|-3333-7777-3333-6-5-7-|-33—-3/7-7/3-5-11---|
|-1111-5555-1111-4-3-5-|-11—-1/5-5/1-3-11---|
  .... .... .... . . .


Gtr2 Riff 4A 3X
|----------------------|-------------------|
|----------------------|-------------------|
|----------------------|-------------------|
|----------------------|-------------------|
|-33--377--733-3-6-5-7-|-33—-3/7-7/3-5-11--|
|-11--155--511-1-4-3-5-|-11—-1/5-5/1-3-11--|
|                                          |
|                                          |
|Gtr2 Riff 4B 1X                           |
|----------------------|-------------------|
|----------------------|-------------------|
|----------------------|-------------------|
|----------------------|-------------------|
|-33--377--733-3-6-5-7-|-33—-3/7-7/3-5-11--|
|-11--155--511-1-4-3-5-|-11—-1/5-5/1-3-11--|
                 . . .


Riff 5A
|----------------|----------------|---------------------|
|----------------|----------------|---------------------|
|----------------|----------------|---------------------|
|----------------|----------------|---------------------|
|-4444-----------|-5555-----------|---------------------|
|------2222-1111-|------3333-2222-|-0000-0000-1111-1111-|


Riff 5B
|-------------|-------------|---------------------|
|-------------|-------------|---------------------|
|-------------|-------------|---------------------|
|-666---------|-777---------|---------------------|
|-444-444-333-|-555-555-444-|---------------------|
|-----222-111-|-----333-222-|-0000-0000-1111-1111-|
  ... ... ...   ... ... ...   .... .... .... ....


Riff 6A
|----------------------------------------|
|----------------------------------------|
|----------------------------------------|
|-----------------6----------------------|
|-4-3----6-4-3----4-4-3----3/6-6666-6666-|
|-2-1-00-4-2-1-00---2-1-00-1/4-4444-4444-|
      ..       ..       ..

 Riff 6B
|----------------------------------------|
|----------------------------------------|
|----------------------------------------|
|-----------------6----------------------|
|-4-3----6-4-3----4-4-3----3/6-6666-7777-|
|-2-1-00-4-2-1-00---2-1-00-1/4-4444-5555-|
      ..       ..       ..


Riff 7A
|-----------------------------|
|-----------------------------|
|-----------------------------|
|-----------------------------|
|---------------------4-2-3-2-|
|-1000-2000-1000-3000-2-0-1-0-|
                      . . . .

Riff 7B
|---------------------------------|-----|
|---------------------------------|-----|
|---------------------------------|-----|
|---------------------------------|-----|
|-3/2---4/3---3/2---5/3---4-2-3-2-|-3-2-|
|-1/0-0-2/1-0-1/0-0-3/1-0-2-0-1-0-|-1-0-|
      .     .     .     . . . . .   . .
Добавлено: 14.03.2012
Другие материалы по этой песне:

Страница создана 14.03.2012
http://primanota.ru/dying-fetus/born-in-sodom-chords.htm
Привет, Гость.
Предлагаем пройти революционный курс по гитаре.
Подарок от PrimaNota.Ru, забирай!