PrimaNota.ru - самый крупный в мире бесплатный архив песенных текстов, аккордов, табулатур и нот


Dwb - One Reason (feat. Fade) - текст песни, таба, бас-таба, видео

Регистрация Запомнить меня
Войти через:  Facebook Google Twitter Vk Yandex Mail.ru

Dwb - One Reason (feat. Fade) - текст песни, таба, бас-таба, видео

Печатать
Просмотров: 677
ONE REASON: Tabs by Fefe - Tron544

Cover Link: http://www.youtube.com/watch?v=SBTWDegWGQY
Youtube Channel: https://www.youtube.com/user/Tron544


Intro:

GUITAR 2:

e|--------------------------|
B|--------------------------|
G|--------------------------|
D|--9------9------9------9--|
A|--------------------------|
D|--------------------------|

GUITAR 1:

e|--------------------------------------------|--------------------------------------------|
B|--------------------------------------------|--------------------------------------------|
G|--------------------------------------------|--------------------------------------------|
D|--2---4--4--4--4---2---4--4--4---2---4---5--|--2---4--4--4--4---2---4--4--4---2---4---5--|
A|--2---4--4--4--4---2---4--4--4---2---4---5--|--2---4--4--4--4---2---4--4--4---2---4---5--|
D|--2---4--4--4--4---2---4--4--4---2---4---5--|--2---4--4--4--4---2---4--4--4---2---4---5--|

GUITAR 2:

e|------|-----|
B|------|-----|
G|--11--|--9--|
D|------|-----|
A|------|-----|
D|------|-----|

GUITAR 1:

e|--------------------------------------------|----------------------------------------------|
B|--------------------------------------------|----------------------------------------------|
G|--------------------------------------------|----------------------------------------------|
D|--2---4--4--4--4---2---4--4--4---2---4---5--|--2---4--4--4--4---2---4--4--4---7--7---5--5--|
A|--2---4--4--4--4---2---4--4--4---2---4---5--|--2---4--4--4--4---2---4--4--4---7--7---5--5--|
D|--2---4--4--4--4---2---4--4--4---2---4---5--|--2---4--4--4--4---2---4--4--4---7--7---5--5--|

e|-------------|-----|
B|-------------|-----|
G|-------------|-----|
D|--11------9--|-----|
A|-------------|--9--|
D|-------------|-----|

GUITAR 1:

e|--------------------------------------------|--------------------------------------------|
B|--------------------------------------------|--------------------------------------------|
G|--------------------------------------------|--------------------------------------------|
D|--2---4--4--4--4---2---4--4--4---2---4---5--|--2---4--4--4--4---2---4--4--4---2---4---5--|
A|--2---4--4--4--4---2---4--4--4---2---4---5--|--2---4--4--4--4---2---4--4--4---2---4---5--|
D|--2---4--4--4--4---2---4--4--4---2---4---5--|--2---4--4--4--4---2---4--4--4---2---4---5--|

GUITAR 2:

e|------|-----|
B|------|-----|
G|--11--|--9--|
D|------|-----|
A|------|-----|
D|------|-----|

GUITAR 1:

e|--------------------------------------------|----------------------------------------------|
B|--------------------------------------------|----------------------------------------------|
G|--------------------------------------------|----------------------------------------------|
D|--2---4--4--4--4---2---4--4--4---2---4---5--|--2---4--4--4--4---2---4--4--4---7--7---5--5--|
A|--2---4--4--4--4---2---4--4--4---2---4---5--|--2---4--4--4--4---2---4--4--4---7--7---5--5--|
D|--2---4--4--4--4---2---4--4--4---2---4---5--|--2---4--4--4--4---2---4--4--4---7--7---5--5--|

e|-------------|-----|
B|-------------|-----|
G|-------------|-----|
D|--11------9--|-----|
A|-------------|--9--|
D|-------------|-----|


Verse/Estrofa: x2

GUITAR 1:

e|--------------------------------------------|--------------------------------------------|
B|--------------------------------------------|--------------------------------------------|
G|--------------------------------------------|--------------------------------------------|
D|--2---4--4--4--4---2---4--4--4---2---4---5--|--2---4--4--4--4---2---4--4--4---2---4---5--|
A|--2---4--4--4--4---2---4--4--4---2---4---5--|--2---4--4--4--4---2---4--4--4---2---4---5--|
D|--2---4--4--4--4---2---4--4--4---2---4---5--|--2---4--4--4--4---2---4--4--4---2---4---5--|

GUITAR 2:

e|-----------------------|--------------------------|
B|-----------------------|--------------------------|
G|-----------------------|--------------------------|
D|--11--11--11--11---12--|--11--11---9--9---11--11--|
A|-----------------------|--------------------------|
D|-----------------------|--------------------------|

GUITAR 1:

e|--------------------------------------------|----------------------------------------------|
B|--------------------------------------------|----------------------------------------------|
G|--------------------------------------------|----------------------------------------------|
D|--2---4--4--4--4---2---4--4--4---2---4---5--|--2---4--4--4--4---2---4--4--4---7--7---5--5--|
A|--2---4--4--4--4---2---4--4--4---2---4---5--|--2---4--4--4--4---2---4--4--4---7--7---5--5--|
D|--2---4--4--4--4---2---4--4--4---2---4---5--|--2---4--4--4--4---2---4--4--4---7--7---5--5--|

GUITAR 2:

e|-----------------------|----------------------------|
B|-----------------------|----------------------------|
G|-----------------------|--9-------------------------|
D|--11--11--11--11---12--|------11--11---12--12---11--|
A|-----------------------|----------------------------|
D|-----------------------|----------------------------|


Pre-Chorus/Pre-Estribillo:

GUITAR 1:

e|--------------------------------------------|--------------------------------------------|
B|--------------------------------------------|--------------------------------------------|
G|--------------------------------------------|--------------------------------------------|
D|--2---4--4--4--4---2---4--4--4---2---4---5--|--2---4--4--4--4---2---4--4--4---2---4---5--|
A|--2---4--4--4--4---2---4--4--4---2---4---5--|--2---4--4--4--4---2---4--4--4---2---4---5--|
D|--2---4--4--4--4---2---4--4--4---2---4---5--|--2---4--4--4--4---2---4--4--4---2---4---5--|

GUITAR 2:

e|------|-----|
B|------|-----|
G|--11--|--9--|
D|------|-----|
A|------|-----|
D|------|-----|

GUITAR 1:

e|--------------------------------------------|----------------------------------------------|
B|--------------------------------------------|----------------------------------------------|
G|--------------------------------------------|----------------------------------------------|
D|--2---4--4--4--4---2---4--4--4---2---4---5--|--2---4--4--4--4---2---4--4--4---7--7---5--5--|
A|--2---4--4--4--4---2---4--4--4---2---4---5--|--2---4--4--4--4---2---4--4--4---7--7---5--5--|
D|--2---4--4--4--4---2---4--4--4---2---4---5--|--2---4--4--4--4---2---4--4--4---7--7---5--5--|

e|-------------|-----|
B|-------------|-----|
G|-------------|-----|
D|--11------9--|-----|
A|-------------|--9--|
D|-------------|-----|

GUITAR 1:

e|--------------------------------------------|--------------------------------------------|
B|--------------------------------------------|--------------------------------------------|
G|--------------------------------------------|--------------------------------------------|
D|--2---4--4--4--4---2---4--4--4---2---4---5--|--2---4--4--4--4---2---4--4--4---2---4---5--|
A|--2---4--4--4--4---2---4--4--4---2---4---5--|--2---4--4--4--4---2---4--4--4---2---4---5--|
D|--2---4--4--4--4---2---4--4--4---2---4---5--|--2---4--4--4--4---2---4--4--4---2---4---5--|

GUITAR 2:

e|------|-----|
B|------|-----|
G|--11--|--9--|
D|------|-----|
A|------|-----|
D|------|-----|


Chorus/Estribillo:

GUITAR 1:

e|---------------------------|---------------------------|
B|---------------------------|---------------------------|
G|---------------------------|---------------------------|
D|--7------10------3------5--|--7------10------3------5--|
A|--7------10------3------5--|--7------10------3------5--|
D|--7------10------3------5--|--7------10------3------5--|

GUITAR 2:

e|----------------------------|-----------------------------------------|
B|----------------------------|-----------------------------------------|
G|--9--9------9--10--9--------|------9------9--10--12-------------------|
D|--------12--------------12--|--12-----12---------------10--12--10--9--|
A|----------------------------|-----------------------------------------|
D|----------------------------|-----------------------------------------|

GUITAR 1:

e|---------------------------|---------------------------|
B|---------------------------|---------------------------|
G|---------------------------|---------------------------|
D|--7------10------3------5--|--7------10------3------5--|
A|--7------10------3------5--|--7------10------3------5--|
D|--7------10------3------5--|--7------10------3------5--|

GUITAR 2:

e|----------------------------|-----------------------------------------|
B|----------------------------|-----------------------------------------|
G|--9--9------9--10--9--------|------9------9--10--12----12--12--10--9--|
D|--------12--------------12--|--12-----12------------------------------|
A|----------------------------|-----------------------------------------|
D|----------------------------|-----------------------------------------|

GUITAR 1:

e|---------------------------|---------------------------|
B|---------------------------|---------------------------|
G|---------------------------|---------------------------|
D|--7------10------3------5--|--7------10------3------5--|
A|--7------10------3------5--|--7------10------3------5--|
D|--7------10------3------5--|--7------10------3------5--|

GUITAR 2:

e|----------------------------|--------------------------------------|
B|----------------------------|--------------------------------------|
G|--9--9------9--10--9--------|-------------------------------10--9--|
D|--------12--------------12--|--12--12--12--10--9--10----12---------|
A|----------------------------|--------------------------------------|
D|----------------------------|--------------------------------------|

GUITAR 1:

e|---------------------------|---------------------------|
B|---------------------------|---------------------------|
G|---------------------------|---------------------------|
D|--7------10------3------5--|--7------12------3------5--|
A|--7------10------3------5--|--7------12------3------5--|
D|--7------10------3------5--|--7------12------3------5--|

GUITAR 2:

e|----------------------------|
B|----------------------------|
G|--9--9------9--10--9--------|
D|--------12--------------12--|
A|----------------------------|
D|----------------------------|

Tabs by Fefe - Tron544
Добавлено: 18.07.2014
Другие материалы по этой песне:

Страница создана 13.07.2012
http://primanota.ru/dwb/one-reason-chords.htm
Привет, Гость.
Предлагаем пройти революционный курс по гитаре.
Подарок от PrimaNota.Ru, забирай!