PrimaNota.ru - самый крупный в мире бесплатный архив песенных текстов, аккордов, табулатур и нот


Dwarves - Working Class Hole - бас-таба, видео

Регистрация Запомнить меня
Войти через:  Facebook Google Twitter Vk Yandex Mail.ru

Dwarves - Working Class Hole - бас-таба, видео

Печатать
Просмотров: 119
Intro
G-------------------------|
D-------------5--4--2--0--|
A-5--4--2--0--------------|
E-------------------------|

Verse                                                                             x4
G-----------------------------------------------------------------|-----------------|
D-----------------------------------------------------------------|-----------------|
A-5-5-5-5-------------------------5-5-5-5---------2-2-2-2---------|-5-5-5-5-5-5-5-5-|
E---------5-5-5-5-7-7-7-7-3-3-3-3---------3-3-3-3---------5-5-5-5-|-----------------|

PreChorus ("Hey Boss man...")
G---------------------------------|-----------------------------------|
D---------------------------------|-----------------------------------|
A-7---------------5-5-5-5-5-5-5-5-|---------5-----------------7-------|
E-0-------------------------------|-0-----------------0---------------|


Chorus
G-----------------------------------------------------------------|
D-----------------------------------------------------------------|
A-5-5-5-5-5-5-5-5-------------------------------------------------|
E-----------------5-5-5-5-5-5-5-5-3-3-3-3-3-3-3-3---2-2-2---0-0-0-|
Добавлено: 20.07.2015
Другие материалы по этой песне:
  • Аккорды и текст

Страница создана 20.07.2015
http://primanota.ru/dwarves/working-class-hole-chords.htm
Привет, Гость.
Предлагаем пройти революционный курс по гитаре.
Подарок от PrimaNota.Ru, забирай!