PrimaNota.ru - самый крупный в мире бесплатный архив песенных текстов, аккордов, табулатур и нот


Dwarves - We Only Came To Get High - бас-таба, видео

Регистрация Запомнить меня
Войти через:  Facebook Google Twitter Vk Yandex Mail.ru

Dwarves - We Only Came To Get High - бас-таба, видео

Печатать
Просмотров: 46
Уроки эстрадного вокала в Санкт-Петербурге
Intro
G-------------|-------------|-------------------------------|--------------------------|
D-------------|-------------|-------------------------------|-----------------7(Hold)--|
A-3--2--0--2--|-3--2--0--2--|-3--2--0--2--3--2--0-----------|--------------------------|
E-------------|-------------|-------------------------------|--------------------------|


Verse                                           x2
G-------------------------------------------------|
D-------------------------------------------------|
A-------3-5-3-------3-5-3-------3-5-3-------3-5-3-|
E-5-5-5-------5-5-5-------5-5-5-------5-5-5-------|


PreChorus (also played behind solo)                                x2
G--------------------------------------------------------------------|
D--------------------------------------------------------------------|
A-7-7-7-7-7-7-7-7--3-3-3-3-3-3-3-3--2-2-2-2-2-2-2-2--5-5-5-5-5-5-5-5-|
E--------------------------------------------------------------------|


Chorus                                                    x2
G-----------------------------------------------------------|
D-----------------------------------------------------------|
A-3--2--0--2----3--2--0--2----3--2--0--2--3--2--------3-5-3-|
E-----------------------------------------------5-5-5-------|

Nothing to it, listen for the order
Добавлено: 04.10.2015
Другие материалы по этой песне:
  • Аккорды и текст

Страница создана 04.10.2015
http://primanota.ru/dwarves/we-only-came-to-get-high-chords.htm
Привет, Гость.
Предлагаем пройти революционный курс по гитаре.
Подарок от PrimaNota.Ru, забирай!