PrimaNota.ru - самый крупный в мире бесплатный архив песенных текстов, аккордов, табулатур и нот


Dwarves - Trailer Trash - таба, видео

Регистрация Запомнить меня
Войти через:  Facebook Google Twitter Vk Yandex Mail.ru

Dwarves - Trailer Trash - таба, видео

Печатать
Просмотров: 30
-------------------------------------------------------------------------------
                             TRAILER TRASH - Dwarves
-------------------------------------------------------------------------------

e|----------------------------|
B|----------------------------|
G|-2-2-------2-2--------------|
D|-2-2--2----2-2--2-----------|
A|-0-0--2----0-0--2-----------|
E|------0---------0-----------|

 "Trailer trash,   fallen angel of the underclass;    Teenage trollop with a
e|----------------------------------------------------------------------------|
B|----------------------------------------------------------------------------|
G|-------------------------------------2--x-x-x-x-x---------------------------|
D|-2--x-x-x-x-x-x-x-x-x-x-x-x-x-x-x-x--2--x-x-x-x-x-4-x-x-x-x-x-x-x-x-x-x-x-x-|
A|-2--x-x-x-x-x-x-x-x-x-x-x-x-x-x-x-x--0--x-x-x-x-x-4-x-x-x-x-x-x-x-x-x-x-x-x-|
E|-0--x-x-x-x-x-x-x-x-x-x-x-x-x-x-x-x---------------2-x-x-x-x-x-x-x-x-x-x-x-x-|

  "Perfect ass,     Yeah, she moved in fast on me
e|------------------------------------------------------------------------|
B|-------------------------------------------------------------4-4-4--4---|
G|-2--x-x-x-x-x-x-x-x-x-x-----4-x-x-x-x-x-x-x------------------4-4-4--4---|
D|-2--x-x-x-x-x-x-x-x-x-x-----4-x-x-x-x-x-x-x--2-x-x-x-x-x-x---2-2-2--2---|
A|-0--x-x-x-x-x-x-x-x-x-x-----2-x-x-x-x-x-x-x--2-x-x-x-x-x-x--------------|
E|---------------------------------------------0-x-x-x-x-x-x--------------|

 "When we first met, she was puffin' on a cigarette;     That demented junkyard
e|------------------------------------------------------------------------------|
B|------------------------------------------------------------------------------|
G|---------------------------------------2--x-x-x-x-x---------------------------|
D|-2--x-x-x-x-x-x-x-x-x-x-x-x-x-x-x-x----2--x-x-x-x-x-4-x-x-x-x-x-x-x-x-x-x-x-x-|
A|-2--x-x-x-x-x-x-x-x-x-x-x-x-x-x-x-x----0--x-x-x-x-x-4-x-x-x-x-x-x-x-x-x-x-x-x-|
E|-0--x-x-x-x-x-x-x-x-x-x-x-x-x-x-x-x-----------------2-x-x-x-x-x-x-x-x-x-x-x-x-|

  "Juliette,             with Tourettes of my  dreams
e|------------------------------------------------------------------------|
B|-------------------------------------------------------------4-4-4--4---|
G|-2--x-x-x-x-x-x-x-x-x-x-----4-x-x-x-x-x-x-x------------------4-4-4--4---|
D|-2--x-x-x-x-x-x-x-x-x-x-----4-x-x-x-x-x-x-x--2-x-x-x-x-x-x---2-2-2--2---|
A|-0--x-x-x-x-x-x-x-x-x-x-----2-x-x-x-x-x-x-x--2-x-x-x-x-x-x--------------|
E|---------------------------------------------0-x-x-x-x-x-x--------------|

  "The bleach blonde hair and missing teeth    Cannot hide what's underneath
e|--------------------------------------------------------------------------------------|
B|--------------------------------------------------------------------------------------|
G|-------------------2-x-x-x-x-x-x-x--4-x-x-x-x-x-x-x------------------6-x-x-x-x-x-x-x--|
D|-------------------2-x-x-x-x-x-x-x--4-x-x-x-x-x-x-x-6-x-x-x-x-x-x-x--6-x-x-x-x-x-x-x--|
A|-------------------0-x-x-x-x-x-x-x--2-x-x-x-x-x-x-x-6-x-x-x-x-x-x-x--4-x-x-x-x-x-x-x--|
E|----------------------------------------------------4-x-x-x-x-x-x-x-------------------|

  "That nyphomanic thief that stole my heart
e|-----------------------------------------------------|
B|-----------------------------------------------------|
G|------2-x-x-x-x--4-x-x-x-x-x-x-x-x-x-----------------|
D|------2-x-x-x-x--4-x-x-x-x-x-x-x-x-x-2-x-x-x-x-x-----|
A|------0-x-x-x-x--2-x-x-x-x-x-x-x-x-x-2-x-x-x-x-x-----|
E|-------------------------------------0-x-x-x-x-x-----|

  "The scent of Funyuns on her breath When she was all spun out on meth
e|----------------------------------------------------------------------------------|
B|----------------------------------------------------------------------------------|
G|--------------2-x-x-x-x-x-x--4-x-x-x-x-x-x-x-x-x-----------------6-x-x-x-x-x-x-x--|
D|--------------2-x-x-x-x-x-x--4-x-x-x-x-x-x-x-x-x-6-x-x-x-x-x-x---6-x-x-x-x-x-x-x--|
A|--------------0-x-x-x-x-x-x--2-x-x-x-x-x-x-x-x-x-6-x-x-x-x-x-x---4-x-x-x-x-x-x-x--|
E|-------------------------------------------------4-x-x-x-x-x-x--------------------|

  "I knew she'd be the death of me..."
e|-----------------------------------------------------|
B|-----------------------------------------------------|
G|---2-x-x-x-x-x-x-x---4-x-x-x-x-2-2------2-2----------|
D|---2-x-x-x-x-x-x-x---4-x-x-x-x-2-2-2----2-2-2--------|
A|---0-x-x-x-x-x-x-x---2-x-x-x-x-0-0-2----0-0-2--------|
E|-----------------------------------0--------0--------|

 "There she blows, sucked a golf ball through a garden hose     Two legs bragging how they
e|-----------------------------------------------------------------------------------------|
B|-----------------------------------------------------------------------------------------|
G|----------------------------------------------2--x-x-x-x-x-------------------------------|
D|-2--x-x-x-x-x-x-x-x-x-x-x-x-x-x-x-x-----------2--x-x-x-x-x-4-x-x-x-x-x-x-x-x-x-x-x-x-----|
A|-2--x-x-x-x-x-x-x-x-x-x-x-x-x-x-x-x-----------0--x-x-x-x-x-4-x-x-x-x-x-x-x-x-x-x-x-x-----|
E|-0--x-x-x-x-x-x-x-x-x-x-x-x-x-x-x-x------------------------2-x-x-x-x-x-x-x-x-x-x-x-x-----|

  "Never close           in a gutter       rosary
e|------------------------------------------------------------------------|
B|-------------------------------------------------------------4-4-4--4---|
G|-2--x-x-x-x-x-x-x-x-x-x-----4-x-x-x-x-x-x-x------------------4-4-4--4---|
D|-2--x-x-x-x-x-x-x-x-x-x-----4-x-x-x-x-x-x-x--2-x-x-x-x-x-x---2-2-2--2---|
A|-0--x-x-x-x-x-x-x-x-x-x-----2-x-x-x-x-x-x-x--2-x-x-x-x-x-x--------------|
E|---------------------------------------------0-x-x-x-x-x-x--------------|

 "What could I do? I got stuck on her just like the glue   She's been huffing since the
e|--------------------------------------------------------------------------------------|
B|--------------------------------------------------------------------------------------|
G|-----------------------------------------2--x-x-x-x-x---------------------------------|
D|-----2--x-x-x-x-x-x-x-x-x-x-x-x-x-x-x-x--2--x-x-x-x-x-4-x-x-x-x-x-x-x-x-x-x-x-x-------|
A|-----2--x-x-x-x-x-x-x-x-x-x-x-x-x-x-x-x--0--x-x-x-x-x-4-x-x-x-x-x-x-x-x-x-x-x-x-------|
E|-----0--x-x-x-x-x-x-x-x-x-x-x-x-x-x-x-x---------------2-x-x-x-x-x-x-x-x-x-x-x-x-------|

  "age of two          Now my lonely nights were through
e|--------------------------------------------------------------------------|
B|---------------------------------------------------------------4-4-4--4---|
G|-2--x-x-x-x-x-x-x-x-x-x-----4-x-x-x-x-x-x-x--------------------4-4-4--4---|
D|-2--x-x-x-x-x-x-x-x-x-x-----4-x-x-x-x-x-x-x----2-x-x-x-x-x-x---2-2-2--2---|
A|-0--x-x-x-x-x-x-x-x-x-x-----2-x-x-x-x-x-x-x----2-x-x-x-x-x-x--------------|
E|-----------------------------------------------0-x-x-x-x-x-x--------------|

  "Then that tornado ripped through town, Turned the whole world upside down
e|---------------------------------------------------------------------------------------|
B|---------------------------------------------------------------------------------------|
G|--------------2-x-x-x-x-x-x-x-----4-x-x-x-x-x-x-x---------------------6-x-x-x-x-x-x-x--|
D|--------------2-x-x-x-x-x-x-x-----4-x-x-x-x-x-x-x--6-x-x-x-x-x-x-x----6-x-x-x-x-x-x-x--|
A|--------------0-x-x-x-x-x-x-x-----2-x-x-x-x-x-x-x--6-x-x-x-x-x-x-x----4-x-x-x-x-x-x-x--|
E|---------------------------------------------------4-x-x-x-x-x-x-x---------------------|

  "She vanished in a flash  With my credit cards and stash
e|--------------------------------------------------------------------|
B|--------------------------------------------------------------------|
G|-----2-x-x-x-x-x---4-x-x-x-x-x-x-------------------6-x-x-x-x-x-x-x--|
D|-----2-x-x-x-x-x---4-x-x-x-x-x-x--6-x-x-x-x-x-x-x--6-x-x-x-x-x-x-x--|
A|-----0-x-x-x-x-x---2-x-x-x-x-x-x--6-x-x-x-x-x-x-x--4-x-x-x-x-x-x-x--|
E|----------------------------------4-x-x-x-x-x-x-x-------------------|

  "Now I'm left here with this rash  And I'm sifting through the ash
e|--------------------------------------------------------------------------------|
B|--------------------------------------------------------------------------------|
G|---------2-x-x-x-x-x-x-x-x---4-x-x-x-x-x-----------------------6-x-x-x-4-x-x-x--|
D|---------2-x-x-x-x-x-x-x-x---4-x-x-x-x-x---6-x-x-x-x-x-x-x-x---6-x-x-x-4-x-x-x--|
A|---------0-x-x-x-x-x-x-x-x---2-x-x-x-x-x---6-x-x-x-x-x-x-x-x---4-x-x-x-2-x-x-x--|
E|-------------------------------------------4-x-x-x-x-x-x------------------------|

  "For my tragic trailer trash..."
e|---------------------------------------------|
B|---------------------------------------------|
G|--------2-x-x-x-4-x-x--2-2------2-2----------|
D|--------2-x-x-x-4-x-x--2-2-2----2-2-2--------|
A|--------0-x-x-x-2-x-x--0-0-2----0-0-2--------|
E|---------------------------0--------0--------|
Добавлено: 17.06.2016
Другие материалы по этой песне:
  • Аккорды и текст

Страница создана 17.06.2016
http://primanota.ru/dwarves/trailer-trash-chords.htm
Привет, Гость.
Предлагаем пройти революционный курс по гитаре.
Подарок от PrimaNota.Ru, забирай!