PrimaNota.ru - самый крупный в мире бесплатный архив песенных текстов, аккордов, табулатур и нот


Dwarves - Speed Demon - текст песни, таба, бас-таба, видео

Регистрация Запомнить меня
Войти через:  Facebook Google Twitter Vk Yandex Mail.ru

Dwarves - Speed Demon - текст песни, таба, бас-таба, видео

Печатать
Просмотров: 90
Intro/Slow Part
E------------------------------------------------------|
B------------------------------------------------------|
G-10-9---------10-9---------10-9---------10-7-7-7-7-7--|
D-10-9-x-x-x-x-10-9---------10-9---------10-7-7-7-7-7--|
A-8--7-x-x-x-x-8--7-x-x-x-x-8--7-x-x-x-x-8--5-5-5-5-5--|
E------------------------------------------------------|

Main Riff
E-------------------------------------|
B-------------------------------------|
G-2-2-2-2--5-5-5-5--10101010-7-7-7-7--|
D-2-2-2-2--5-5-5-5--10101010-7-7-7-7--|
A-0-0-0-0--3-3-3-3--8-8-8-8--5-5-5-5--|
E-------------------------------------|


Really nothing to it, Just Listen for the order
Добавлено: 12.12.2015
Другие материалы по этой песне:
  • Аккорды и текст

Страница создана 23.04.2012
http://primanota.ru/dwarves/speed-demon-chords.htm
Привет, Гость.
Предлагаем пройти революционный курс по гитаре.
Подарок от PrimaNota.Ru, забирай!