PrimaNota.ru - самый крупный в мире бесплатный архив песенных текстов, аккордов, табулатур и нот


Dwarves - Satan - текст песни, таба, видео

Регистрация Запомнить меня
Войти через:  Facebook Google Twitter Vk Yandex Mail.ru

Dwarves - Satan - текст песни, таба, видео

Печатать
Просмотров: 56
Main Riff
E-------------------|
B-------------------|
G-------------------|
D-3-3--5-5--7-7-7-7-|
A-3-3--5-5--7-7-7-7-|
E-1-1--3-3--5-5-5-5-|


Bridge ("Satan- Vampire Lucifer...") 
E-------------------------------------|
B-------------------------------------|
G----------7-7-7-7-----------9-9-9-9--|
D-5-5-5-5--7-7-7-7--5-5-5-5--9-9-9-9--|
A-5-5-5-5--5-5-5-5--5-5-5-5--7-7-7-7--|
E-3-3-3-3-----------3-3-3-3-----------|


Order 
Main Riff x6
Bridge    x1
Main Riff x4
Bridge    x1
Main Riff x9
Добавлено: 04.10.2015
Другие материалы по этой песне:
  • Аккорды и текст

Страница создана 10.07.2012
http://primanota.ru/dwarves/satan-chords.htm
Привет, Гость.
Предлагаем пройти революционный курс по гитаре.
Подарок от PrimaNota.Ru, забирай!