PrimaNota.ru - самый крупный в мире бесплатный архив песенных текстов, аккордов, табулатур и нот


Dwarves - Incect Whore - бас-таба, видео

Регистрация Запомнить меня
Войти через:  Facebook Google Twitter Vk Yandex Mail.ru

Dwarves - Incect Whore - бас-таба, видео

Печатать
Просмотров: 69
Уроки эстрадного вокала в Санкт-Петербурге
Intro
G---------|
D---------|
A-2---5---|
E---------|

Verse 1                 x4
G-------------------------|
D-2-2-2-------0-0-0-------|
A-------3-3-3-------2-2-2-|
E-------------------------|

"Now eat that dick..." (14 seconds)
G-----------------------------------------------------------------|-----------------|
D-----------------------------------------------------------------|-----------------|
A-0-0-0-0-0-0-0-0-7-7-7-7-7-7-7-7-0-0-0-0-0-0-0-0---------2-2-2-2-|-2-2-2-2-2-2-2-2-|
E-------------------------------------------------2-2-2-2---------|-----------------|

Verse 2  (21 seconds)
G--------------------------------------|
D--------------------------------------|
A-5/7----5/7----5/7------------2-2-2-2-|
E----------------------2-2-2-2---------|

Outro (28 seconds)      x6
G-------------------------|
D-2-2-2-------0-0-0-------|
A-------3-3-3-------2-2-2-|
E-------------------------|


Sorry it's too hard to make out the words so i indicated everything with the SECONDS
Добавлено: 04.10.2015
Другие материалы по этой песне:
  • Аккорды и текст

Страница создана 04.10.2015
http://primanota.ru/dwarves/incect-whore-chords.htm
Привет, Гость.
Предлагаем пройти революционный курс по гитаре.
Подарок от PrimaNota.Ru, забирай!