PrimaNota.ru - самый крупный в мире бесплатный архив песенных текстов, аккордов, табулатур и нот


Dwarves - Get Up And Get High - бас-таба, видео

Регистрация Запомнить меня
Войти через:  Facebook Google Twitter Vk Yandex Mail.ru

Dwarves - Get Up And Get High - бас-таба, видео

Печатать
Просмотров: 128
Main Riff/Verse
G-----------------------------|
D-----------------------------|
A-5-5-5-----------------------|
E--------5-5-5--3/5-5--5-5-5--|


Chorus ("Get High, Get High...")
G--------------------------------------------|
D--------------------------------------------|
A----------------------------------5---------|
E-3/5-5-5-5--3/5-5-5-5--3/5-5-5-5----5-5-5-5-|


Bridge
G-----------------------------------------------------------------------------|
D-----------------------------------------------------------------------------|
A-------------1-1-1-1-------------3-3-3-3-------------1-1-1-1-3-3-3-3-3-3-3-3-|
E-0-3-0-3-0-3---------0-3-0-3-0-3---------0-3-0-3-0-3-------------------------|


Another Classic for ya. The Main Riff/Verse is also played in the intro and behind the solo. 
Just listen for the order. 
Добавлено: 20.07.2015
Другие материалы по этой песне:
  • Аккорды и текст

Страница создана 20.07.2015
http://primanota.ru/dwarves/get-up-and-get-high-chords.htm
Привет, Гость.
Предлагаем пройти революционный курс по гитаре.
Подарок от PrimaNota.Ru, забирай!