PrimaNota.ru - самый крупный в мире бесплатный архив песенных текстов, аккордов, табулатур и нот


Dwarves - The Dwarves Are Still The Best Band Ever - бас-таба, видео

Регистрация Запомнить меня
Войти через:  Facebook Google Twitter Vk Yandex Mail.ru

Dwarves - The Dwarves Are Still The Best Band Ever - бас-таба, видео

Печатать
Просмотров: 104
Уроки эстрадного вокала в Санкт-Петербурге
Intro                                                                     (Guitar Kicks in)
G-------------------------------------------------------------7----------|-----------------|
D------------------------------------------------------------------------|-----------------|
A-3-3--0-3-3--0-3---------------------3--3-3--3--3-3--5--5-5-------------|-3-3-3-3-3-3-3-3-|
E---------------------1--1-1--1--1-1------------------------------3------|-----------------|

Main Riff                                                     x4                
G---------------------------------------------------------------|
D---------------------------------------------------------------|
A-----------------3-3-3-3-3-3-3-5-5-5-5---------3-3-3-3-3-3-3-3-|
E-1-1-1-1-1-1-1-1-----------------------3-3-3-3-----------------|

Right After Solo ("Now time is fleeting, life is short...")
G---------------------------------------------------------------|
D---------------------------------------------------------------|
A-----------------3--3-3-3--3-3-5--5-5----------3-3-3-3-3-3-3-3-|
E-1--1-1---1--1-1----------------------3---3-3------------------|

Last Chorus
G---------------------------------------------------------------|
D---------------------------------------------------------------|
A-----------------3-3-3-3-3-3-3-5-5-5-5---------3-----3-2-1-0---|
E-1-1-1-1-1-1-1-1-----------------------3-3-3-3-----------------|

Ending ("Let's all get high and fuck some sluts")
G---------------------------------------------------------|
D---------------------------------------------------------|
A---------------------------------3-3-0-0-3-3-0-0-3-3-0-3-|
E-1-1-1-1-1-1-1-1-3-3-3-3-3-3-3-3-------------------------|



It is in order but just in case you're retarded 

Intro       x1
Main Riff   x10
After Solo  x1
Last Chorus x1
Ending      x1
Добавлено: 27.04.2015
Другие материалы по этой песне:
  • Аккорды и текст

Страница создана 27.04.2015
http://primanota.ru/dwarves/dwarves-are-still-best-band-ever-chords.htm
Привет, Гость.
Предлагаем пройти революционный курс по гитаре.
Подарок от PrimaNota.Ru, забирай!