PrimaNota.ru - самый крупный в мире бесплатный архив песенных текстов, аккордов, табулатур и нот


Dwarves - Detention Girl - текст песни, таба, бас-таба, видео

Регистрация Запомнить меня
Войти через:  Facebook Google Twitter Vk Yandex Mail.ru

Dwarves - Detention Girl - текст песни, таба, бас-таба, видео

Печатать
Просмотров: 96
Main Riff
E--------------|
B--------------|
G-----2--5-----|
D--2--2--5--5--|
A--2--0--3--5--|
E--0--------3--|

Interlude ("...Detention... Detention...") (*20 seconds) 
E----------------------|
B----------------------|
G-4-4---------2-2-2-2--|
D-4-4--5-5-5--2-2-2-2--|
A-2-2--5-5-5--0-0-0-0--|
E------3-3-3-----------|

Bridge ("It hurts so bad...") 
E--------------------------|
B--------------------------|
G------2-2--5-5-5----------|
D-2-2--2-2--5-5-5--5-5-5-5-|
A-2-2--0-0--3-3-3--5-5-5-5-|
E-0-0--------------3-3-3-3-|
Добавлено: 12.12.2015
Другие материалы по этой песне:
  • Аккорды и текст

Страница создана 11.05.2012
http://primanota.ru/dwarves/detention-girl-chords.htm
Привет, Гость.
Предлагаем пройти революционный курс по гитаре.
Подарок от PrimaNota.Ru, забирай!