PrimaNota.ru - самый крупный в мире бесплатный архив песенных текстов, аккордов, табулатур и нот


Dwarves - Dairy Queen - таба, видео

Регистрация Запомнить меня
Войти через:  Facebook Google Twitter Vk Yandex Mail.ru

Dwarves - Dairy Queen - таба, видео

Печатать
Просмотров: 46
Main Riff/Chorus
E-------------------------|
B-------------------------|
G-------------------------|
D--7-7---5-5-5---3-3-3-3--|
A--7-7---5-5-5---3-3-3-3--|
E--5-5---3-3-3---1-1-1-1--|

Bridge Part  
E-------------------|
B--0-0-0-0-0-0-0-0--|
G--1-1-1-1-1-1-1-1--|
D--2-2-2-2-2-2-2-2--|
A--2-2-2-2-2-2-2-2--|
E--0-0-0-0-0-0-0-0--|

Verse             x3
E-------------------|------------------------------------|
B-------------------|------------------------------------|
G-------------------|------------------------------------|
D--7-7-7-7-7---5-5--|-7-7-7-7-7-7-7-7---5-5-5-5-5-5-5-5--|
A--7-7-7-7-7---5-5--|-7-7-7-7-7-7-7-7---5-5-5-5-5-5-5-5--|
E--5-5-5-5-5---3-3--|-5-5-5-5-5-5-5-5---3-3-3-3-3-3-3-3--|


That's it, just listen for the order. The Bridge part is only played in the intro and round the solo,
most of the song is just alternating between the Main Riff and Verse part
Добавлено: 04.10.2015
Вам также может быть интересно:
Другие материалы по этой песне:
  • Аккорды и текст

Страница создана 04.10.2015
http://primanota.ru/dwarves/dairy-queen-chords.htm
Привет, Гость.
Предлагаем пройти революционный курс по гитаре.
Подарок от PrimaNota.Ru, забирай!