PrimaNota.ru - самый крупный в мире бесплатный архив песенных текстов, аккордов, табулатур и нот


Песни дворовые - Тема South Park - аккорды и текст, видео

Регистрация Запомнить меня
Войти через:  Facebook Google Twitter Vk Yandex Mail.ru

Песни дворовые - Тема South Park - аккорды и текст, видео

Печатать
Просмотров: 298
Уроки эстрадного вокала в Санкт-Петербурге
Тема South Park
Песни дворовые
Intro
E|x--x--x--x--9----------------9-------10--------------------------|
B|x--x--x--x--13--x--x--13--13-----11--12--10--10--10--9--9--9--7\-|
G|-----------------------------------------11--11--11--9--9--9--7\-|
D|-----------------------------------------------------------------|
A|-----------------------------------------------------------------|
E|-----------------------------------------------------------------|

Verse
E|---------------------------------------------------------------------|
B|7---7---7---7---7---8---7---8/10-10-10-13--13--13\10-10-10/13-13--13-|
G|5---5---5---5---5---5---5---5/8--8--8--11--11--11\8--8---8/11-11--11-|
D|---------------------------------------------------------------------|
A|---------------------------------------------------------------------|
E|---------------------------------------------------------------------|

Main Riff
E|9---x--9---x--9----------x------9---------9------9------9----------9-----12-|
B|13--x--13--x--13--13-13--x--13--13----10--13--x--13--x--13--13--x--13-13----|
G|-----------------------------------11---------------------------------------|
D|----------------------------------------------------------------------------|
A|----------------------------------------------------------------------------|
E|----------------------------------------------------------------------------|

E|-12--13--13--12--12----------------------------------------------------------|
B|---------------------16--16--16--16--19--19--19--16--16--16--16---19--19--19-|
G|---------------------14--14--14--14--17--17--17--16--16--16--16---17--17--17-|
D|-----------------------------------------------------------------------------|
A|-----------------------------------------------------------------------------|
E|-----------------------------------------------------------------------------|

E|9---x--9---x--9----------x------9-----------9---9---9----9---9-----------|
B|13--x--13--x--13--13-13--x--13--13-----10---13--13--13---13--13--13---13-|
G|------------------------------------11------11--11--11---11--11--11---11-|
D|----------------------------------------------------13-----------13---13-|
A|-------------------------------------------------------------------------|
E|-------------------------------------------------------------------------|
Добавлено: 22.03.2014
http://primanota.ru/dvorovye-pesni/tema-south-park-chords.htm
Привет, Гость.
Предлагаем пройти революционный курс по гитаре.
Подарок от PrimaNota.Ru, забирай!