PrimaNota.ru - самый крупный в мире бесплатный архив песенных текстов, аккордов, табулатур и нот


Песни дворовые - Mario theme - аккорды и текст, видео

Регистрация Запомнить меня
Войти через:  Facebook Google Twitter Vk Yandex Mail.ru

Песни дворовые - Mario theme - аккорды и текст, видео

Печатать
Просмотров: 111
Уроки эстрадного вокала в Санкт-Петербурге
Mario theme
Песни дворовые
e|-0-0-0---0-3---|
B|-------1-------|
G|-------------0-|
D|---------------|
A|---------------|
E|---------------|

e|--------------------0-3-5-1-3-0-----------------------0-3-5-1-3-0---------
B|-1-------0------------------------1-3-0-1-------0-------------------1-3-0-
G|---0---2---3-2-0---------------------------0---2---3-2-0------------------
D|-----2-----------------------------------------2--------------------------
A|--------------------------------------------------------------------------
E|--------------------------------------------------------------------------

e|-3-2-1---0-------------3-2-1---0-7-7-7-----3-2-1---0-----------------------
B|-------4-------1---1-3-------4-----------------------4--------1---1-3-4-3-1-
G|-----------1-2---2-----------------------------------------1-2---2----------
D|----------------------------------------------------------------------------
A|----------------------------------------------------------------------------
E|----------------------------------------------------------------------------

e|--------------0-------------------0-------------0--------
B|-1-1-1-1-3---1-----1-1-1-1-3---1-1-1-1-3---1-------------
G|------------------2-0--------------------------------2-0-
D|---------------------------------------------------------
A|---------------------------------------------------------
E|---------------------------------------------------------

e|-0-0-0---0-3----
B|--------1-------
G|---------------0
D|----------------
A|----------------
E|----------------

e|-----------------0-3-5-1-3-0---------------------------0-3-5-1-3-0---------|
B|-1--------0-------------------1-3-0-1--------0-----------------------1-3-0-|
G|---0---2---3-2-0-----------------------0---2---3-2-0-----------------------|
D|-----2-------------------------------------2-------------------------------|
A|---------------------------------------------------------------------------|
E|---------------------------------------------------------------------------|

e|-0----------1-1-----5-5-5-3-1-0-------0--------1-1-----1-1-1-0---------|
B|---1--------------------------------1-------1----------------------3-1-|
G|-----0-1-2-----2-2-------------------2-0-----0-1-2----2-2--------------|
D|-----------------------------------------------------------------------|
A|-----------------------------------------------------------------------|
E|-----------------------------------------------------------------------|

e|-0---------1-1-----5-5-5-3-1-0-----0----------1-1----1-1-1-0-----------|
B|---1---------------------------1---------1-------------------------3-1-|
G|-----0-1-2-----2-2---------------2-0-----0-1-2----2-2------------------|
D|-----------------------------------------------------------------------|
A|-----------------------------------------------------------------------|
E|-----------------------------------------------------------------------|

e|--------------------0-3-5-1-3-0--------------------------0-3-5-1-3-0---------|
B|-1-------0------------------------1-3-0-1-------0----------------------1-3-0-|
G|---0---2---3-2-0--------------------------0---2---3-2-0----------------------|
D|-----2----------------------------------------2------------------------------|
A|-----------------------------------------------------------------------------|
E|-----------------------------------------------------------------------------|

e|-0----------1-1-----5-5-5-3-1-0---------0------------1-1-----1-1-1-0-----------|
B|---1--------------------------------1----------1---------------------------3-1-|
G|-----0-1-2-----2-2-------------------2-0-------0-1-2------2-2------------------|
D|-------------------------------------------------------------------------------|
A|-------------------------------------------------------------------------------|
E|-------------------------------------------------------------------------------|

e|----------------------
B|-1--------------------
G|---0---2-4-2--1-3-1-0-
D|-----2----------------
A|----------------------
E|----------------------
Добавлено: 22.10.2015
Другие материалы по этой песне:
  • Аккорды и текст

Страница создана 22.10.2015
http://primanota.ru/dvorovye-pesni/mario-theme-chords.htm
Привет, Гость.
Предлагаем пройти революционный курс по гитаре.
Подарок от PrimaNota.Ru, забирай!