PrimaNota.ru - самый крупный в мире бесплатный архив песенных текстов, аккордов, табулатур и нот


Dvda - Hell Isnt Good - таба, видео

Регистрация Запомнить меня
Войти через:  Facebook Google Twitter Vk Yandex Mail.ru

Dvda - Hell Isnt Good - таба, видео

Печатать
Просмотров: 105
DVDA - Hell Isn't Good
As heard in South Park: Bigger, Longer, Uncut

Tabbed by: Jonathan Cullis

Tuning: Drop D Down 1/2 step (C# G# C# F# A# D#)

* = Palm Mute

|--------------------------------------------|
|--------------------------------------------|
|--------7---------7--------7----------------|  X4
|--------7---------7--------7----------------|  
|--------5---------5--------5---5-3---3------|
|--0-0-0-----0-0-0----0-0-0---------7---7-5--|
   * * *     * * *    * * *

|-----------------------|
|-----------------------|
|-----------------------|
|--------3---------5----| 
|--------3---------5----|
|--3-3-3-3---5-5-5-5----|
   * * *     * * *

|--------------------------------------------|
|--------------------------------------------|
|--------7---------7--------7----------------|  x3
|--------7---------7--------7----------------|  
|--------5---------5--------5---5-3---3------|
|--0-0-0-----0-0-0----0-0-0---------7---7-5--|
   * * *     * * *    * * *

|-----------------------|
|-----------------------|
|-----------------------|
|--------3---------5----| 
|--------3---------5----|
|--3-3-3-3---5-5-5-5----|
   * * *     * * *

|--------------------------------------------|
|--------------------------------------------|
|--------7---------7--------7----------------|
|--------7---------7--------7----------------|  
|--------5---------5--------5---5-3---3------|
|--0-0-0-----0-0-0----0-0-0---------7---7-5--|
   * * *     * * *    * * *

|-----------------------|
|-----------------------|
|-----------------------|
|--------3---------5----| 
|--------3---------5----|
|--3-3-3-3---5-5-5-5----|
   * * *     * * *

|--------------------------------------------|
|--------------------------------------------|
|--------7---------7--------7----------------|  
|--------7---------7--------7----------------|  
|--------5---------5--------5---5-3---3------|
|--0-0-0-----0-0-0----0-0-0---------7---7-5--|
   * * *     * * *    * * *

|-----------------------|
|-----------------------|
|-----------------------|
|--------3---------5----| 
|--------3---------5----|
|--3-3-3-3---5-5-5-5----|
   * * *     * * *

|----------------------------------------|
|----------------------------------------|
|--------7---------7--------7---5--5--5--|  
|--------7---------7--------7---5--5--5--|  x2
|--------5---------5--------5---3--3--3--|
|--0-0-0-----0-0-0----0-0-0--------------|
   * * *     * * *    * * *

|-----------------------|
|-----------------------|
|-----------------------|
|--------3---------5----| 
|--------3---------5----|
|--3-3-3-3---5-5-5-5----|
   * * *     * * *

|---------------------------------------------|
|---------------------------------------------|
|--------7---------7--------------------------|
|--------7---------7---------3---------5---0--|  
|--------5---------5---------3---------5---0--|
|--0-0-0-----0-0-0-----3-3-3-3---5-5-5-5---0--|
   * * *     * * *     * * *     * * *
Добавлено: 20.03.2012
Другие материалы по этой песне:

Страница создана 22.02.2012
http://primanota.ru/dvda/hell-isnt-good-chords.htm
Привет, Гость.
Предлагаем пройти революционный курс по гитаре.
Подарок от PrimaNota.Ru, забирай!