PrimaNota.ru - самый крупный в мире бесплатный архив песенных текстов, аккордов, табулатур и нот


Dvbbs Borgeous - Tsunami - таба, видео

Регистрация Запомнить меня
Войти через:  Facebook Google Twitter Vk Yandex Mail.ru

Dvbbs Borgeous - Tsunami - таба, видео

Печатать
Просмотров: 367
Уроки эстрадного вокала в Санкт-Петербурге
email: dylanwright1197@hotmail.co.uk
My first tab


Here is the drop/solo part of the song.  It must be played fast with two plucks on every note (apart from the G 

string which is four notes).





standard tuning: no capo 


e|---------------------------------------------------------------------------
B|---------------------------------------------------------------------------
G|-----8-8-8-8---------------------------------------------------------------
D|-------------9-9--7-7------------------------------------------------------
A|----------------------10-10--9-9--10-10--7---------------------------------
E|---------------------------------------------------------------------------

this is played 8 times then the second part :


e|---------------------------------------------------------------------------
B|---------------------------------------------------------------------------
G|-----9-9-------------9-9---------------------------------------------------
D|----------9-9-9-9-7--------------------------------------------------------
A|--------------------------9-9-9-10-9---------------------------------------
E|---------------------------------------------------------------------------

Very basic stuff ! just abit of fun really :)
just remember and keep the tempo high !
                                        
                                            
                                            
                                        
                                                                
                        
                        
                        
                                                    
/* Ultimate-Guitar - Tab Pages */
(function() {
	var opts = {
		artist: "Dvbbs Borgeous",
		song: "Tsunami",
		genre: "",
		adunit_id: 39382312,
		div_id: "cf_async_" + Math.floor((Math.random() * 999999999)),
		hostname: "srv.tonefuse.com"
	};
	document.write('');var c=function(){cf.showAsyncAd(opts)};if(window.cf)c();else{cf_async=!0;var r=document.createElement("script"),s=document.getElementsByTagName("script")[0];r.async=!0;r.src="//"+opts.hostname+"/showads/showad.js";r.readyState?r.onreadystatechange=function(){if("loaded"==r.readyState||"complete"==r.readyState)r.onreadystatechange=null,c()}:r.onload=c;s.parentNode.insertBefore(r,s)};
})();


                        
                                                    
                                UG plus: remove banner
                                                                    
                                    
                                    
                                                            
                                                

                    

                
                
                
                    
                        comments
                    
                                            
                            We did not receive enough feedback on this tab! Please rate:
                        
                                        
                        print report bad tab
                    
                                            
                                                            1
                                                            2
                                                            3
                                                            4
                                                            5
                                                    
                                    
                
                                    
                
                    
                             
    
        1 comment total. 
            
    
                                
                
                
                    
                        
                            
                                
                                    
                                    
                                
                                                                    0
                                                            
                            reply
                            
                            
                        
                        Regist33l wrote on November 23 2014, 05:02 pm  
                    
                    
                        --------------------- Tsunami - DVBBS & Borgeous ----------------------------------------------- Tabbed by: Regist33l ---------------------------- 

Tuning:Standard

 
e|---------------------------------------------------------------|
B|---------------------------------------------------------------|
G|-----9-9-9-9---------------------------------------------------|
D|-------------9-9-7-7-------------------------------------------|
A|---------------------10-10-9-9-10-10-7-7-----------------------|
E|---------------------------------------------------------------|

e|---------------------------------------------------------------|
B|---------------------------------------------------------------|
G|------9-9---------------9-9------------------------------------|
D|----------9-9-9-9-7--------------------------------------------|
A|----------------------------9-9-9-10-7-------------------------|
E|---------------------------------------------------------------|
Добавлено: 23.10.2014
Другие материалы по этой песне:
  • Аккорды и текст

Страница создана 07.08.2014
http://primanota.ru/dvbbs-borgeous/tsunami-chords.htm
Привет, Гость.
Предлагаем пройти революционный курс по гитаре.
Подарок от PrimaNota.Ru, забирай!