PrimaNota.ru - самый крупный в мире бесплатный архив песенных текстов, аккордов, табулатур и нот


Dutton - After All - аккорды и текст, видео

Регистрация Запомнить меня
Войти через:  Facebook Google Twitter Vk Yandex Mail.ru

Dutton - After All - аккорды и текст, видео

Печатать
Просмотров: 110
Уроки эстрадного вокала в Санкт-Петербурге
After All
Dutton
Artist: Dutton
Song: After All
Album: The Surface
www.duttonband.com

Tuning: Half Step Down (Eb Ab C# F# Bb Eb)  
Strum Pattern: D D U U D

Chord Charts:

A             A2C#         D6           F#m           Esus4           E              D6(2)
X02400         X42400       X54200       2X2200        022200         022100         X57700


Intro: A  A2C# (x2)

A   A2C#     A                    A2C#
I    FALL
    BACK ON MY KNEES AGAIN


A   A2C#        A                     A2C#
MY   ALL     
IS ALL THAT I HAVE TO GIVE


             D6   F#m                D6     F#m                 D6    F#m
AND AFTER ALL
          YOU'RE AFTER ALL OF ME
    AND AFTER ALL 

          Esus4   E
I'M AFTER ALL      OF YOU


A  A2C# (x2)


A   A2C#     A                    A2C#
I    FALL
    BACK ON MY KNEES AGAIN


A   A2C#         A                     A2C#
MY   ALL      
IS ALL THAT I HAVE TO GIVE


             D6   F#m                D6     F#m               D6    F#m
AND AFTER ALL
          YOU'RE AFTER ALL OF ME
    AND AFTER ALL 

          Esus4   E          D6(2)
I'M AFTER ALL      OF YOU


           F#m             D6(2)              F#m            D6(2)         F#m              D6(2)
ALL THAT I AM
 (all that I am) YOU'RE SEEKING AFTER ALL OF ME  
WITH ALL I HAVE
 (with all I have)

            F#m
I'M SEEKING AFTER ALL OF YOU


A  A2C# (x2)


A   A2C#     A                    A2C#
I    FALL
    BACK ON MY KNEES AGAIN


(GUITAR SOLO)
CHORDS FOR SOLO: D6   F#m (x4)


           D6(2)           F#m             D6(2)              F#m            D6(2)         F#m   
(and after all) ALL THAT I AM
 (all that I am) YOU'RE SEEKING AFTER ALL OF ME  
WITH ALL I HAVE
 

             D6(2)            F#m              D6
(with all I have) I'M SEEKING AFTER ALL OF YOU


F#m               D6     F#m              D6    F#m             Esus4    E        D6
    YOU'RE AFTER ALL OF ME
    AND AFTER ALL          I'M AFTER ALL          OF YOU



Solo:

eb|--------------------------------------------------------------------|
Bb|--------------------------------------------------------------------|
Gb|--9999997777776666-9999997777776666---------------------------------|
Db|------------------------------------7-79-99----9-999-97-7-----------|
Ab|----------------------------------------------------------7-7----7--|
Eb|--------------------------------------------------------------------|

eb|--------------------------------------------------------------------|
Bb|--------------------------------------------------------------------|
Gb|--9999997777776666-9999997777776666-9-------7-6-4-------------------|
Db|---------------------------------------------------------7----------|
Ab|--------------------------------------------------------------------|
Eb|--------------------------------------------------------------------|

Добавлено: 25.07.2012
Другие материалы по этой песне:
  • Аккорды и текст

Страница создана 25.07.2012
http://primanota.ru/dutton/after-all-chords.htm
Привет, Гость.
Предлагаем пройти революционный курс по гитаре.
Подарок от PrimaNota.Ru, забирай!