PrimaNota.ru - самый крупный в мире бесплатный архив песенных текстов, аккордов, табулатур и нот


Dusty Springfield - I only wanna be with you - бас-таба, видео

Регистрация Запомнить меня
Войти через:  Facebook Google Twitter Vk Yandex Mail.ru

Dusty Springfield - I only wanna be with you - бас-таба, видео

Печатать
Просмотров: 126
Уроки эстрадного вокала в Санкт-Петербурге



Date: Sun, 25 Jun 2006 08:13:49 +0200 (CEST)
From: [iso-8859-1] Jan Bjяfffffffffff6rklund 
Subject: s/springfield_dusty/i_only_wanna_be_with_you.btab

I Only Wanna Be With You.btab
Dusty Springfield
TablEdited by Jan Bjorklund
Tuning : E A D G 	Time Signature: 4/4

 tempo 132       |       |        |       |       |       |        
|--------------------------------|--------------------------------|
|----------------------------0---|--------0-----------0-------0---|
|----------------3---------------|----------------3---------------|
|3-------------------------------|--------------------------------|

 |       |       |       |        |       |       |       I        
|--------------------------------|--------------------------------|
|----------------------------0---|0-------0-----------0-------0---|
|------------3-------------------|----------------3---------------|
|3-------------------------------|--------------------------------|

 don't know what...      |        |       |       |       |        
|--------------------------------|--------------------------------|
|----------------0-----------0---|2-----------2-------------------|
|--------------------------------|----------------2-----------2---|
|3-------------------------------|--------------------------------|

 |       |       |       |        |       |       |   'cause       
|--------------------------------|--------------------------------|
|----------------0-----------0---|2-----------2-----------2---0---|
|--------------------------------|----------------2---------------|
|3-----------3-------------------|--------------------------------|

 you started something...|        |       |       |       |        
|--------------------------------|--------------------------------|
|----------------0-----------0---|----------------0---------------|
|3-----------3-------------------|0-----------0-------3---2---0---|
|--------------------------------|--------------------------------|

 |       |       |       |        |       |       |       It       
|0-----------0-------------------|--------------------------------|
|----------------0-----------0---|2-----------2---2-----------2---|
|--------------------------------|--------------------------------|
|--------------------------------|--------------------------------|

 happens to be true...   |        |       |       |       I        
|--------------------------------|--------------------------------|
|--------------------------------|0-----------0---0-----------0---|
|0-------2-------3-------4-------|------------------------0-------|
|--------------------------------|--------------------------------|

 only wanna be...|       |        |       |       |       |        
|----------------------------0---|--------------------------------|
|----------------0---------------|----------------0-------0-------|
|0-------------------------------|--------3-----------------------|
|--------------------------------|--------------------------------|

 |       |       |       |        |       |       |       |        
|0-----------0-------------------|--------------------------------|
|----------------0-----------0---|2-----------2-------------------|
|--------------------------------|----------------2-----------2---|
|--------------------------------|--------------------------------|

 |       |       |       |        |       |       |       |        
|0-----------0-------------------|--------------------------------|
|----------------0-------0---0---|2-----------2-----------2---0---|
|--------------------------------|----------------2---------------|
|--------------------------------|--------------------------------|

 |       |       |       |        |       |       |       |        
|--------------------------------|--------------------------------|
|----------------0-----------0---|----------------0---------------|
|3-----------3-------------------|0-----------0-------3---2---0---|
|--------------------------------|--------------------------------|

 |       |       |       |        |       |       |       |        
|--------------------------------|--------------------------------|
|----------------0-----------0---|2-----------2---2-----------2---|
|--------------------------------|------------------------2-------|
|3-----------3-----------3-------|--------------------------------|

 |       |       |       |        |       |       |       I        
|--------------------------------|--------------------------------|
|--------------------------------|0-----------0---0-------0---0---|
|0-------2-------3-------4-------|--------------------------------|
|--------------------------------|--------------------------------|

 only wanna be...|       |        |       |       |       |        
|----------------------------0---|--------------------------------|
|----------------0---------------|--------------------------------|
|0-----------0-------------------|--------3-----------------------|
|--------------------------------|----3-----------3-------3---3---|

 |     You stopped and smiled at me...    |       |       |        
|--------------------------------|--------------------------------|
|1-----------1-------------------|1-----------1-------------------|
|----------------1-----------1---|----------------1-----------1---|
|--------------------------------|--------------------------------|

 |       |       |       |        |       |       |       |        
|0-----------0-------------------|0-------0-------0-----------0---|
|--------------------------------|------------0-----------0-------|
|----------------3-----------3---|--------------------------------|
|--------------------------------|--------------------------------|

 |       |       |       |        |       |       |       |        
|--------------------------------|--------------------------------|
|0-----------0---0---------------|0-------0-----------------------|
|----------------------------0---|----0-------3---2-------2---2---|
|--------------------------------|--------------------------------|

 |       |       |       |        |       |       |       |        
|--------------------------------|--------------------------------|
|2-----------2-------------------|0-------0-------0-------0-------|
|----------------0-----------0---|------------2-------------------|
|--------------------------------|--------------------------------|

 |       |       |       |        |       |       |       |        
|--------------------------------|---------------- and so on...---|
|----------------0-----------0---|2-----------2-------------------|
|--------------------------------|----------------2---------------|
|3-----------3-------------------|----------------------------3---|

Transcribe  6.0 transcription http://www.seventhstring.demon.co.uk/
Created with TablEdit http://www.tabledit.com/
http://www.geocities.com/jani_bjorklund/janis.html


Добавлено: 05.11.2013
Вам также может быть интересно:
Другие материалы по этой песне:
  • Аккорды и текст

Страница создана 05.11.2013
http://primanota.ru/dusty-springfield/i-only-wanna-be-with-you-chords.htm
Привет, Гость.
Предлагаем пройти революционный курс по гитаре.
Подарок от PrimaNota.Ru, забирай!