PrimaNota.ru - самый крупный в мире бесплатный архив песенных текстов, аккордов, табулатур и нот


Duster - Queen Of Hearts - таба, видео

Регистрация Запомнить меня
Войти через:  Facebook Google Twitter Vk Yandex Mail.ru

Duster - Queen Of Hearts - таба, видео

Печатать
Просмотров: 45
-------------------------------------------------------------------------------
                         QUEEN OF HEARTS - Duster
-------------------------------------------------------------------------------

Tuning: Standard


Yet another banger from slowcore outfit Duster.


Part 1
------

0:00 Repeat a bunch of times

e|---------------------------------------------------------------------------|
B|---------------------------------------------------------------------------|
G|---------------------------------------------------------------------------|
D|----2---0---2---3---2---0----------4-----4-----4-----4---------------------|
A|--0-------------------------3----0-----0-----0-----0-----------------------|
E|1-----1---1---1---1---1---1----2-----2-----2-----2-------------------------|

At 1:18 play this super power chord to end the section

e|----------------------------------|
B|----------------------------------|
G|--7~------------------------------|
D|--7~------------------------------|
A|--5~------------------------------|
E|--5~------------------------------|


Part 2
------

1:22 

This bit is a bit trickier and these chord shapes may not be exactly what's on the record
but hey, they're the right notes

e|--------------------------------------------------------------|
B|----------------------------------------0----------0----------|
G|----6-7-6---6-7-----6-7-6---6-7-------6---6------6---6--------|
D|--4-------4-------4-------4----------------4-----------4------|
A|5---------------5------------------5-----------5--------------|
E|---------------------------------7-----------7----------------|
                                   ^           ^  
                                   use your pinky to
                                   hit that note

e|---------------------------------------------------------------------------|  }
B|-----------------------------------------------------0------------0--------|  }
G|------11-12-11---11-12------11-12-11---11-12-------6---6--------6---6------|  }
D|----9----------9----------9----------9-------------------4------------4----|  }} Repeat just this section
A|-10--------------------10-----------------------5-------------7------------|  }  a few times.
E|----------------------------------------------7-------------5--------------|  }


Part 3
------

2:33

I'm not going to tab this section because it's just two chords played with a 4/4 quarter note rhythm 


e|---------------------------------------------------------------------------|
B|---------------------------------------------------------------------------|
G|---------------------------------------------------------------------------|
D|--7--------------7-------------------7-------------------------------------|
A|--8--------------8-------------------7-------------------------------------|
E|--6--------------5*------------------5-------------------------------------|
    ^              ^                   ^
    First chord    The bass            normal
                   plays this note     powerchord
                   but you can too




Finish the song with a few repetitions of Part 1.



************************************

| /   slide up
| \   slide down
| h   hammer-on
| p   pull-off
| ~   vibrato
| +   harmonic
| x   Mute note
| b   Bend
| pb  Pre-bend
| br  Bend release
| pbr Pre-bend release
| brb Bend release bend

************************************
Добавлено: 12.05.2016
Другие материалы по этой песне:
  • Аккорды и текст

Страница создана 12.05.2016
http://primanota.ru/duster/queen-of-hearts-chords.htm
Привет, Гость.
Предлагаем пройти революционный курс по гитаре.
Подарок от PrimaNota.Ru, забирай!