PrimaNota.ru - самый крупный в мире бесплатный архив песенных текстов, аккордов, табулатур и нот


Duster - Echo Bravo - таба, видео

Регистрация Запомнить меня
Войти через:  Facebook Google Twitter Vk Yandex Mail.ru

Duster - Echo Bravo - таба, видео

Печатать
Просмотров: 45
-------------------------------------------------------------------------------
                             ECHO, BRAVO - Duster
-------------------------------------------------------------------------------

Tuning:DGCFAd


Another song off Stratosphere by the underrated spacerock band, Duster.

Part 1
------
Starts at 1:16 after the feedback/drums intro bit.

d|---------------------------------------------------------------------------|
A|---------------------------------------------------------------------------|
F|---------------------------------------------------------------------------|
C|----13-13----13-13----13-13----13---7-7-7-7-7-7-7-7------------------------|
G|----11-11----11-11----11-11----11---7-7-7-7-7-7-7-7------------------------|
D|0-0------0-0------0-0------0-0------5-5-5-5-5-5-5-5------------------------|


d|---------------------------------------------------------------------------|
A|---------------------------------------------------------------------------|
F|---------------------------------------------------------------------------|
C|----13-13----13-13----13-13----13b14~-7-7-7-7-7-7-7-7----------------------|
G|----11-11----11-11----11-11----11-----7-7-7-7-7-7-7-7----------------------|
D|0-0------0-0------0-0------0-0--------5-5-5-5-5-5-5-5----------------------|


Part 2
------
Starts at 2:28, and continues under the vocals; has an odd timing but nothing too hard at all.


d|---------------------------------------------------------------------------|
A|---------------------------------------------------------------------------|
F|------------------------------7-77-7-77-7-77-------------------------------|
C|7-7-7--77-7-7-74-4-4--44-4-44-7-77-7-77-7-77-------------------------------|
G|7-7-7--77-7-7-74-4-4--44-4-44-5-55-5-55-5-55-------------------------------|
D|5-5-5--55-5-5-52-2-2--22-2-22----------------------------------------------|


Repeat as necessary. 



************************************

| /   slide up
| \   slide down
| h   hammer-on
| p   pull-off
| ~   vibrato
| +   harmonic
| x   Mute note
| b   Bend
| pb  Pre-bend
| br  Bend release
| pbr Pre-bend release
| brb Bend release bend

************************************
Добавлено: 12.05.2016
Другие материалы по этой песне:
  • Аккорды и текст

Страница создана 12.05.2016
http://primanota.ru/duster/echo-bravo-chords.htm
Привет, Гость.
Предлагаем пройти революционный курс по гитаре.
Подарок от PrimaNota.Ru, забирай!