PrimaNota.ru - самый крупный в мире бесплатный архив песенных текстов, аккордов, табулатур и нот


Duster - Constellations - таба, видео

Регистрация Запомнить меня
Войти через:  Facebook Google Twitter Vk Yandex Mail.ru

Duster - Constellations - таба, видео

Печатать
Просмотров: 69
-------------------------------------------------------------------------------
                            Constellations - Duster
-------------------------------------------------------------------------------
Tabbed by: miranpav

Tuning: STANDARD

So, this is an excellent song by Duster which I have tried to Tab/chord out. The main riff is really simple
heaps of repeats and some extra add ons. Because of its lo-fi sound its hard to distinguish if they played
added 9ths or stuff in the chorusy bit however they are the correct chords, just don't play them like you 
would normally. Enjoy, also comment for any fixes thanks. 

Main riff
E|----------------------------------------------------------|
B|----------------------------------------------------------|
G|----------------------------------------------------------|
D|-----9-------7---6---7---4---7----------------------------|
A|---7---7---7---7---7---7---7---7--------------------------|
E|-5-------5------------------------------------------------|


Chorus - Bar is not represent in scale
Play this section softly while not striking every string every stroke
you can also play C and Am in barre chords, but it doesn't sound that right. 
Experiment.


   C                  Am                F        repeat

E|--------------------------------------1----------------|
B|-1------------------1-----------------1----------------|
G|-0------------------2-----------------2----------------|
D|-2------------------2-----------------3----------------|
A|-3------------------0-----------------3----------------|
E|--------------------------------------1----------------|


Then back to main riff


Main riff
E|----------------------------------------------------------|
B|----------------------------------------------------------|
G|----------------------------------------------------------|
D|-----9-------7---6---7---4---7----------------------------|
A|---7---7---7---7---7---7---7---7--------------------------|
E|-5-------5------------------------------------------------|


and then the add ons showed by brackets plated by second guitarist after some bars.

E|----------------------------------------------------------|
B|----------------------------------------------------------|
G|----(9)-----(6)-----(6)-----(6)---------------------------|
D|-----9-------7---6---7---4---7----------------------------|
A|---7---7---7---7---7---7---7---7--------------------------|
E|-5-------5------------------------------------------------|
Добавлено: 12.05.2016
Другие материалы по этой песне:
  • Аккорды и текст

Страница создана 12.05.2016
http://primanota.ru/duster/constellations-chords.htm
Привет, Гость.
Предлагаем пройти революционный курс по гитаре.
Подарок от PrimaNota.Ru, забирай!