PrimaNota.ru - самый крупный в мире бесплатный архив песенных текстов, аккордов, табулатур и нот


Dust - Stone Woman - таба, видео

Регистрация Запомнить меня
Войти через:  Facebook Google Twitter Vk Yandex Mail.ru

Dust - Stone Woman - таба, видео

Печатать
Просмотров: 35
Stone Woman
by Dust

[NOTE: This is just the rhythm guitar part... no lead]

 Intro

|---------------------|----------------------|
|---------------------|-------------------3--|
|---------------------|-------------(5)---2--|
|-2-2-----2-----2---2-|-(2)-2-----2--5--0-0--|
|-0-0-3b4-0-----0---0-|-(0)-0-3b4-0--0--0----|
|-----------3b4-------|----------------------|


|---------------------|-------------------------|
|---------------------|--------5-----3-----3----|
|---------------------|--------5-----4-----2----|
|-2-2-----2-----2---2-|-(2)----5-----5-----4----|
|-0-0-3b4-0-----0---0-|-(0)-0-(0)-0-(0)-0-(0)---|
|-----------3b4-------|-------------------------|


|---------------------|----------------------|
|---------------------|-------------------3--|
|---------------------|-------------(5)---2--|
|-2-2-----2-----2---2-|-(2)-2-----2--5--0-0--|
|-0-0-3b4-0-----0---0-|-(0)-0-3b4-0--0--0----|
|-----------3b4-------|----------------------|


|---------------------|------------------------||
|---------------------|--------5-----3-----3---||
|---------------------|--------5-----4-----2---||
|-2-2-----2-----2---2-|-(2)----5-----5-----4---||
|-0-0-3b4-0-----0---0-|-(0)-0-(0)-0-(0)-0-(0)--||
|-----------3b4-------|------------------------||


   Verse 1
||----------------------|----------------------|
||o---------------------|-------------------3--|
||----------------------|-------------(5)---2--|
||--2-2-----2-----2---2-|-(2)-2-----2--5--0-0--|
||o-0-0-3b4-0-----0---0-|-(0)-0-3b4-0--0--0----|
||------------3b4-------|----------------------|


|---------------------|--------------------------||
|---------------------|--------5-----3-----3----o||
|---------------------|--------5-----4-----2-----||
|-2-2-----2-----2---2-|-(2)----5-----5-----4-----||
|-0-0-3b4-0-----0---0-|-(0)-0-(0)-0-(0)-0-(0)---o||
|-----------3b4-------|--------------------------||


|---------------------|----------------------|
|---------------------|-------------------3--|
|---------------------|-------------(5)---2--|
|-2-2-----2-----2---2-|-(2)-2-----2--5--0-0--|
|-0-0-3b4-0-----0---0-|-(0)-0-3b4-0--0--0----|
|-----------3b4-------|----------------------|


|---------------------|------------------------||
|---------------------|--------5-----3-----3---||
|---------------------|--------5-----4-----2---||
|-2-2-----2-----2---2-|-(2)----5-----5-----4---||
|-0-0-3b4-0-----0---0-|-(0)-0-(0)-0-(0)-0-(0)--||
|-----------3b4-------|------------------------||


   Verse 2
||----------------------|----------------------|
||o---------------------|-------------------3--|
||----------------------|-------------(5)---2--|
||--2-2-----2-----2---2-|-(2)-2-----2--5--0-0--|
||o-0-0-3b4-0-----0---0-|-(0)-0-3b4-0--0--0----|
||------------3b4-------|----------------------|


|---------------------|--------------------------||
|---------------------|--------5-----3-----3----o||
|---------------------|--------5-----4-----2-----||
|-2-2-----2-----2---2-|-(2)----5-----5-----4-----||
|-0-0-3b4-0-----0---0-|-(0)-0-(0)-0-(0)-0-(0)---o||
|-----------3b4-------|--------------------------||


|---------------------|----------------------|
|---------------------|-------------------3--|
|---------------------|-------------(5)---2--|
|-2-2-----2-----2---2-|-(2)-2-----2--5--0-0--|
|-0-0-3b4-0-----0---0-|-(0)-0-3b4-0--0--0----|
|-----------3b4-------|----------------------|


|---------------------|------------------------||
|---------------------|--------5-----3-----3---||
|---------------------|--------5-----4-----2---||
|-2-2-----2-----2---2-|-(2)----5-----5-----4---||
|-0-0-3b4-0-----0---0-|-(0)-0-(0)-0-(0)-0-(0)--||
|-----------3b4-------|------------------------||


 Solo I
  Gtr I
|-0-0-x-0-0-0-x-0-|-0-0-x-0-0--0--|-0-0-x-0-0-0-x-0-|-0-0-x-0-0--0--|
|-0-0-x-0-0-0-x-0-|-0-0-x-2-2--2--|-0-0-x-0-0-0-x-0-|-0-0-x-2-2--2--|
|-1-1-x-1-1-1-x-1-|-1-1-x-2-2--2--|-1-1-x-1-1-1-x-1-|-1-1-x-2-2--2--|
|-2-2-x-2-2-2-x-2-|-2-2-x-2-2--2--|-2-2-x-2-2-2-x-2-|-2-2-x-2-2--2--|
|-2-2-x-2-2-2-x-2-|-2-2-x-0-0--0--|-2-2-x-2-2-2-x-2-|-2-2-x-0-0--0--|
|-0-0-x-0-0-0-x-0-|-0-0-x---------|-0-0-x-0-0-0-x-0-|-0-0-x---------|
|
| Gtr II
|     PM  PM  PM    PM  PM|             PM  PM  PM    PM  PM|
|-----------------|---------------|-----------------|---------------|
|-----------------|---------5--5--|-----------------|---------5--5--|
|-7s9---9---9---9-|---9-----6--6--|-7s9---9---9---9-|---9-----6--6--|
|-7s9---9---9---9-|---9-----7--7--|-7s9---9---9---9-|---9-----7--7--|
|-5s7---7---7---7-|---7-----0--0--|-5s7---7---7---7-|---7-----0--0--|
|-----0---0---0---|-0---0-0-------|-----0---0---0---|-0---0-0-------|



|-0-0-x-0-0-0-x-0-|-0-0-x-0-0--0--|-0-0-x-0-0-0-x-0-|-0-0-x-0-0--0--||
|-0-0-x-0-0-0-x-0-|-0-0-x-2-2--2--|-0-0-x-0-0-0-x-0-|-0-0-x-2-2--2--||
|-1-1-x-1-1-1-x-1-|-1-1-x-2-2--2--|-1-1-x-1-1-1-x-1-|-1-1-x-2-2--2--||
|-2-2-x-2-2-2-x-2-|-2-2-x-2-2--2--|-2-2-x-2-2-2-x-2-|-2-2-x-2-2--2--||
|-2-2-x-2-2-2-x-2-|-2-2-x-0-0--0--|-2-2-x-2-2-2-x-2-|-2-2-x-0-0--0--||
|-0-0-x-0-0-0-x-0-|-0-0-x---------|-0-0-x-0-0-0-x-0-|-0-0-x---------||
|
|     PM  PM  PM    PM  PM|             PM  PM  PM    PM  PM|
|-----------------|---------------|-----------------|---------------||
|-----------------|---------5--5--|-----------------|---------5--5--||
|-7s9---9---9---9-|---9-----6--6--|-7s9---9---9---9-|---9-----6--6--||
|-7s9---9---9---9-|---9-----7--7--|-7s9---9---9---9-|---9-----7--7--||
|-5s7---7---7---7-|---7-----0--0--|-5s7---7---7---7-|---7-----0--0--||
|-----0---0---0---|-0---0-0-------|-----0---0---0---|-0---0-0-------||


 Bridge I
  Gtr I
|-0-0-x-0-x-0-x-0-|-x-0-x-0-0--0--|-0-0-x-0-x-0-x-0-|-x-0-x-0-0--0--|
|-0-0-x-0-x-0-x-0-|-x-0-x-2-2--2--|-0-0-x-0-x-0-x-0-|-x-0-x-2-2--2--|
|-1-1-x-1-x-1-x-1-|-x-1-x-2-2--2--|-1-1-x-1-x-1-x-1-|-x-1-x-2-2--2--|
|-2-2-x-2-x-2-x-2-|-x-2-x-2-2--2--|-2-2-x-2-x-2-x-2-|-x-2-x-2-2--2--|
|-2-2-x-2-x-2-x-2-|-x-2-x-0-0--0--|-2-2-x-2-x-2-x-2-|-x-2-x-0-0--0--|
|-0-0-x-0-x-0-x-0-|-x-0-x---------|-0-0-x-0-x-0-x-0-|-x-0-x---------|
|
| Gtr II
|     PM  PM  PM    PM  PM|             PM  PM  PM    PM  PM|
|-----------------|---------------|-----------------|---------------|
|-----------------|---------5--5--|-----------------|---------5--5--|
|-7s9---9---9---9-|---9-----6--6--|-7s9---9---9---9-|---9-----6--6--|
|-7s9---9---9---9-|---9-----7--7--|-7s9---9---9---9-|---9-----7--7--|
|-5s7---7---7---7-|---7-----0--0--|-5s7---7---7---7-|---7-----0--0--|
|-----0---0---0---|-0---0-0-------|-----0---0---0---|-0---0-0-------|



|-0-0-x-0-x-0-x-0-|-x-0-x-0-0--0--|-0-0-x-0-x-0-x-0-|-x-0-x-0-0--0--|
|-0-0-x-0-x-0-x-0-|-x-0-x-2-2--2--|-0-0-x-0-x-0-x-0-|-x-0-x-2-2--2--|
|-1-1-x-1-x-1-x-1-|-x-1-x-2-2--2--|-1-1-x-1-x-1-x-1-|-x-1-x-2-2--2--|
|-2-2-x-2-x-2-x-2-|-x-2-x-2-2--2--|-2-2-x-2-x-2-x-2-|-x-2-x-2-2--2--|
|-2-2-x-2-x-2-x-2-|-x-2-x-0-0--0--|-2-2-x-2-x-2-x-2-|-x-2-x-0-0--0--|
|-0-0-x-0-x-0-x-0-|-x-0-x---------|-0-0-x-0-x-0-x-0-|-x-0-x---------|
|
|     PM  PM  PM    PM  PM|             PM  PM  PM    PM  PM|
|-----------------|---------------|-----------------|---------------|
|-----------------|---------5--5--|-----------------|---------5--5--|
|-7s9---9---9---9-|---9-----6--6--|-7s9---9---9---9-|---9-----6--6--|
|-7s9---9---9---9-|---9-----7--7--|-7s9---9---9---9-|---9-----7--7--|
|-5s7---7---7---7-|---7-----0--0--|-5s7---7---7---7-|---7-----0--0--|
|-----0---0---0---|-0---0-0-------|-----0---0---0---|-0---0-0-------|



|-0-0-x-0-x-0-x-0-|-x-0-x-0-0--0--|-0-0-x-0-x-0-x-0-|-x-0-x-0-0--0--|
|-0-0-x-0-x-0-x-0-|-x-0-x-2-2--2--|-0-0-x-0-x-0-x-0-|-x-0-x-2-2--2--|
|-1-1-x-1-x-1-x-1-|-x-1-x-2-2--2--|-1-1-x-1-x-1-x-1-|-x-1-x-2-2--2--|
|-2-2-x-2-x-2-x-2-|-x-2-x-2-2--2--|-2-2-x-2-x-2-x-2-|-x-2-x-2-2--2--|
|-2-2-x-2-x-2-x-2-|-x-2-x-0-0--0--|-2-2-x-2-x-2-x-2-|-x-2-x-0-0--0--|
|-0-0-x-0-x-0-x-0-|-x-0-x---------|-0-0-x-0-x-0-x-0-|-x-0-x---------|
|
|     PM  PM  PM    PM  PM|             PM  PM  PM    PM  PM|
|-----------------|---------------|-----------------|---------------|
|-----------------|---------5--5--|-----------------|---------5--5--|
|-7s9---9---9---9-|---9-----6--6--|-7s9---9---9---9-|---9-----6--6--|
|-7s9---9---9---9-|---9-----7--7--|-7s9---9---9---9-|---9-----7--7--|
|-5s7---7---7---7-|---7-----0--0--|-5s7---7---7---7-|---7-----0--0--|
|-----0---0---0---|-0---0-0-------|-----0---0---0---|-0---0-0-------|



|-0-0-x-0-x-0-x-0-|-x-0-x-0-0--0--|-0-0-x-0-x-0-x-0-|-x-0-x-0-0-------||
|-0-0-x-0-x-0-x-0-|-x-0-x-2-2--2--|-0-0-x-0-x-0-x-0-|-x-0-x-0-0-------||
|-1-1-x-1-x-1-x-1-|-x-1-x-2-2--2--|-1-1-x-1-x-1-x-1-|-x-1-x-1-1-------||
|-2-2-x-2-x-2-x-2-|-x-2-x-2-2--2--|-2-2-x-2-x-2-x-2-|-x-2-x-2-2-------||
|-2-2-x-2-x-2-x-2-|-x-2-x-0-0--0--|-2-2-x-2-x-2-x-2-|-x-2-x-2-2-------||
|-0-0-x-0-x-0-x-0-|-x-0-x---------|-0-0-x-0-x-0-x-0-|-x-0-x-0-0-------||
|
|     PM  PM  PM    PM  PM|             PM  PM  PM    PM
|-----------------|---------------|-----------------|-----------------||
|-----------------|---------5--5--|-----------------|-----------------||
|-7s9---9---9---9-|---9-----6--6--|-7s9---9---9---9-|---9---9-9-9-9\--||
|-7s9---9---9---9-|---9-----7--7--|-7s9---9---9---9-|---9---9-9-9-9\--||
|-5s7---7---7---7-|---7-----0--0--|-5s7---7---7---7-|---7---7-7-7-7\--||
|-----0---0---0---|-0---0-0-------|-----0---0---0---|-0---------------||


 Interlude I
|---------------------|----------------------|
|---------------------|-------------------3--|
|---------------------|-------------(5)---2--|
|-2-2-----2-----2---2-|-(2)-2-----2--5--0-0--|
|-0-0-3b4-0-----0---0-|-(0)-0-3b4-0--0--0----|
|-----------3b4-------|----------------------|


|---------------------|------------------------|
|---------------------|--------5-----3-----3---|
|---------------------|--------5-----4-----2---|
|-2-2-----2-----2---2-|-(2)----5-----5-----4---|
|-0-0-3b4-0-----0---0-|-(0)-0-(0)-0-(0)-0-(0)--|
|-----------3b4-------|------------------------|


|---------------------|----------------------|
|---------------------|-------------------3--|
|---------------------|-------------(5)---2--|
|-2-2-----2-----2---2-|-(2)-2-----2--5--0-0--|
|-0-0-3b4-0-----0---0-|-(0)-0-3b4-0--0--0----|
|-----------3b4-------|----------------------|


|---------------------|------------------------||
|---------------------|--------5-----3-----3---||
|---------------------|--------5-----4-----2---||
|-2-2-----2-----2---2-|-(2)----5-----5-----4---||
|-0-0-3b4-0-----0---0-|-(0)-0-(0)-0-(0)-0-(0)--||
|-----------3b4-------|------------------------||


   Verse III
||----------------------|----------------------|
||o---------------------|-------------------3--|
||----------------------|-------------(5)---2--|
||--2-2-----2-----2---2-|-(2)-2-----2--5--0-0--|
||o-0-0-3b4-0-----0---0-|-(0)-0-3b4-0--0--0----|
||------------3b4-------|----------------------|


|---------------------|--------------------------||
|---------------------|--------5-----3-----3----o||
|---------------------|--------5-----4-----2-----||
|-2-2-----2-----2---2-|-(2)----5-----5-----4-----||
|-0-0-3b4-0-----0---0-|-(0)-0-(0)-0-(0)-0-(0)---o||
|-----------3b4-------|--------------------------||


|---------------------|----------------------|
|---------------------|-------------------3--|
|---------------------|-------------(5)---2--|
|-2-2-----2-----2---2-|-(2)-2-----2--5--0-0--|
|-0-0-3b4-0-----0---0-|-(0)-0-3b4-0--0--0----|
|-----------3b4-------|----------------------|


|---------------------|------------------------||
|---------------------|--------5-----3-----3---||
|---------------------|--------5-----4-----2---||
|-2-2-----2-----2---2-|-(2)----5-----5-----4---||
|-0-0-3b4-0-----0---0-|-(0)-0-(0)-0-(0)-0-(0)--||
|-----------3b4-------|------------------------||


 Solo II
  Gtr I
|-0-0-x-0-0-0-x-0-|-0-0-x-0-0--0--|-0-0-x-0-0-0-x-0-|-0-0-x-0-0--0--|
|-0-0-x-0-0-0-x-0-|-0-0-x-2-2--2--|-0-0-x-0-0-0-x-0-|-0-0-x-2-2--2--|
|-1-1-x-1-1-1-x-1-|-1-1-x-2-2--2--|-1-1-x-1-1-1-x-1-|-1-1-x-2-2--2--|
|-2-2-x-2-2-2-x-2-|-2-2-x-2-2--2--|-2-2-x-2-2-2-x-2-|-2-2-x-2-2--2--|
|-2-2-x-2-2-2-x-2-|-2-2-x-0-0--0--|-2-2-x-2-2-2-x-2-|-2-2-x-0-0--0--|
|-0-0-x-0-0-0-x-0-|-0-0-x---------|-0-0-x-0-0-0-x-0-|-0-0-x---------|
|
| Gtr II
|     PM  PM  PM    PM  PM|             PM  PM  PM    PM  PM|
|-----------------|---------------|-----------------|---------------|
|-----------------|---------5--5--|-----------------|---------5--5--|
|-7s9---9---9---9-|---9-----6--6--|-7s9---9---9---9-|---9-----6--6--|
|-7s9---9---9---9-|---9-----7--7--|-7s9---9---9---9-|---9-----7--7--|
|-5s7---7---7---7-|---7-----0--0--|-5s7---7---7---7-|---7-----0--0--|
|-----0---0---0---|-0---0-0-------|-----0---0---0---|-0---0-0-------|



|-0-0-x-0-0-0-x-0-|-0-0-x-0-0--0--|-0-0-x-0-0-0-x-0-|-0-0-x-0-0--0--||
|-0-0-x-0-0-0-x-0-|-0-0-x-2-2--2--|-0-0-x-0-0-0-x-0-|-0-0-x-2-2--2--||
|-1-1-x-1-1-1-x-1-|-1-1-x-2-2--2--|-1-1-x-1-1-1-x-1-|-1-1-x-2-2--2--||
|-2-2-x-2-2-2-x-2-|-2-2-x-2-2--2--|-2-2-x-2-2-2-x-2-|-2-2-x-2-2--2--||
|-2-2-x-2-2-2-x-2-|-2-2-x-0-0--0--|-2-2-x-2-2-2-x-2-|-2-2-x-0-0--0--||
|-0-0-x-0-0-0-x-0-|-0-0-x---------|-0-0-x-0-0-0-x-0-|-0-0-x---------||
|
|     PM  PM  PM    PM  PM|             PM  PM  PM    PM  PM|
|-----------------|---------------|-----------------|---------------||
|-----------------|---------5--5--|-----------------|---------5--5--||
|-7s9---9---9---9-|---9-----6--6--|-7s9---9---9---9-|---9-----6--6--||
|-7s9---9---9---9-|---9-----7--7--|-7s9---9---9---9-|---9-----7--7--||
|-5s7---7---7---7-|---7-----0--0--|-5s7---7---7---7-|---7-----0--0--||
|-----0---0---0---|-0---0-0-------|-----0---0---0---|-0---0-0-------||


 Bridge II
  Gtr I
|-0-0-x-0-x-0-x-0-|-x-0-x-0-0--0--|-0-0-x-0-x-0-x-0-|-x-0-x-0-0--0--|
|-0-0-x-0-x-0-x-0-|-x-0-x-2-2--2--|-0-0-x-0-x-0-x-0-|-x-0-x-2-2--2--|
|-1-1-x-1-x-1-x-1-|-x-1-x-2-2--2--|-1-1-x-1-x-1-x-1-|-x-1-x-2-2--2--|
|-2-2-x-2-x-2-x-2-|-x-2-x-2-2--2--|-2-2-x-2-x-2-x-2-|-x-2-x-2-2--2--|
|-2-2-x-2-x-2-x-2-|-x-2-x-0-0--0--|-2-2-x-2-x-2-x-2-|-x-2-x-0-0--0--|
|-0-0-x-0-x-0-x-0-|-x-0-x---------|-0-0-x-0-x-0-x-0-|-x-0-x---------|
|
| Gtr II
|     PM  PM  PM    PM  PM|             PM  PM  PM    PM  PM|
|-----------------|---------------|-----------------|---------------|
|-----------------|---------5--5--|-----------------|---------5--5--|
|-7s9---9---9---9-|---9-----6--6--|-7s9---9---9---9-|---9-----6--6--|
|-7s9---9---9---9-|---9-----7--7--|-7s9---9---9---9-|---9-----7--7--|
|-5s7---7---7---7-|---7-----0--0--|-5s7---7---7---7-|---7-----0--0--|
|-----0---0---0---|-0---0-0-------|-----0---0---0---|-0---0-0-------|



|-0-0-x-0-x-0-x-0-|-x-0-x-0-0--0--|-0-0-x-0-x-0-x-0-|-x-0-x-0-0--0--|
|-0-0-x-0-x-0-x-0-|-x-0-x-2-2--2--|-0-0-x-0-x-0-x-0-|-x-0-x-2-2--2--|
|-1-1-x-1-x-1-x-1-|-x-1-x-2-2--2--|-1-1-x-1-x-1-x-1-|-x-1-x-2-2--2--|
|-2-2-x-2-x-2-x-2-|-x-2-x-2-2--2--|-2-2-x-2-x-2-x-2-|-x-2-x-2-2--2--|
|-2-2-x-2-x-2-x-2-|-x-2-x-0-0--0--|-2-2-x-2-x-2-x-2-|-x-2-x-0-0--0--|
|-0-0-x-0-x-0-x-0-|-x-0-x---------|-0-0-x-0-x-0-x-0-|-x-0-x---------|
|
|     PM  PM  PM    PM  PM|             PM  PM  PM    PM  PM|
|-----------------|---------------|-----------------|---------------|
|-----------------|---------5--5--|-----------------|---------5--5--|
|-7s9---9---9---9-|---9-----6--6--|-7s9---9---9---9-|---9-----6--6--|
|-7s9---9---9---9-|---9-----7--7--|-7s9---9---9---9-|---9-----7--7--|
|-5s7---7---7---7-|---7-----0--0--|-5s7---7---7---7-|---7-----0--0--|
|-----0---0---0---|-0---0-0-------|-----0---0---0---|-0---0-0-------|



|-0-0-x-0-x-0-x-0-|-x-0-x-0-0--0--|-0-0-x-0-x-0-x-0-|-x-0-x-0-0--0--|
|-0-0-x-0-x-0-x-0-|-x-0-x-2-2--2--|-0-0-x-0-x-0-x-0-|-x-0-x-2-2--2--|
|-1-1-x-1-x-1-x-1-|-x-1-x-2-2--2--|-1-1-x-1-x-1-x-1-|-x-1-x-2-2--2--|
|-2-2-x-2-x-2-x-2-|-x-2-x-2-2--2--|-2-2-x-2-x-2-x-2-|-x-2-x-2-2--2--|
|-2-2-x-2-x-2-x-2-|-x-2-x-0-0--0--|-2-2-x-2-x-2-x-2-|-x-2-x-0-0--0--|
|-0-0-x-0-x-0-x-0-|-x-0-x---------|-0-0-x-0-x-0-x-0-|-x-0-x---------|
|
|     PM  PM  PM    PM  PM|             PM  PM  PM    PM  PM|
|-----------------|---------------|-----------------|---------------|
|-----------------|---------5--5--|-----------------|---------5--5--|
|-7s9---9---9---9-|---9-----6--6--|-7s9---9---9---9-|---9-----6--6--|
|-7s9---9---9---9-|---9-----7--7--|-7s9---9---9---9-|---9-----7--7--|
|-5s7---7---7---7-|---7-----0--0--|-5s7---7---7---7-|---7-----0--0--|
|-----0---0---0---|-0---0-0-------|-----0---0---0---|-0---0-0-------|



|-0-0-x-0-x-0-x-0-|-x-0-x-0-0--0--|-0-0-x-0-x-0-x-0-|-x-0-x-0-0-------||
|-0-0-x-0-x-0-x-0-|-x-0-x-2-2--2--|-0-0-x-0-x-0-x-0-|-x-0-x-0-0-------||
|-1-1-x-1-x-1-x-1-|-x-1-x-2-2--2--|-1-1-x-1-x-1-x-1-|-x-1-x-1-1-------||
|-2-2-x-2-x-2-x-2-|-x-2-x-2-2--2--|-2-2-x-2-x-2-x-2-|-x-2-x-2-2-------||
|-2-2-x-2-x-2-x-2-|-x-2-x-0-0--0--|-2-2-x-2-x-2-x-2-|-x-2-x-2-2-------||
|-0-0-x-0-x-0-x-0-|-x-0-x---------|-0-0-x-0-x-0-x-0-|-x-0-x-0-0-------||
|
|     PM  PM  PM    PM  PM|             PM  PM  PM    PM
|-----------------|---------------|-----------------|-----------------||
|-----------------|---------5--5--|-----------------|-----------------||
|-7s9---9---9---9-|---9-----6--6--|-7s9---9---9---9-|---9---9-9-9-9\--||
|-7s9---9---9---9-|---9-----7--7--|-7s9---9---9---9-|---9---9-9-9-9\--||
|-5s7---7---7---7-|---7-----0--0--|-5s7---7---7---7-|---7---7-7-7-7\--||
|-----0---0---0---|-0---0-0-------|-----0---0---0---|-0---------------||


 Interlude II
|---------------------|----------------------|
|---------------------|-------------------3--|
|---------------------|-------------(5)---2--|
|-2-2-----2-----2---2-|-(2)-2-----2--5--0-0--|
|-0-0-3b4-0-----0---0-|-(0)-0-3b4-0--0--0----|
|-----------3b4-------|----------------------|


|---------------------|------------------------|
|---------------------|--------5-----3-----3---|
|---------------------|--------5-----4-----2---|
|-2-2-----2-----2---2-|-(2)----5-----5-----4---|
|-0-0-3b4-0-----0---0-|-(0)-0-(0)-0-(0)-0-(0)--|
|-----------3b4-------|------------------------|


|---------------------|----------------------|
|---------------------|-------------------3--|
|---------------------|-------------(5)---2--|
|-2-2-----2-----2---2-|-(2)-2-----2--5--0-0--|
|-0-0-3b4-0-----0---0-|-(0)-0-3b4-0--0--0----|
|-----------3b4-------|----------------------|


|---------------------|------------------------||
|---------------------|--------5-----3-----3---||
|---------------------|--------5-----4-----2---||
|-2-2-----2-----2---2-|-(2)----5-----5-----4---||
|-0-0-3b4-0-----0---0-|-(0)-0-(0)-0-(0)-0-(0)--||
|-----------3b4-------|------------------------||


 Outro/Solo III
 Gtr I                                       8x
|---------------------|--------------3---2---|
|o--------------------|--------------3---3--o|
|---------------------|--------------0---2---|
|-2-2-----2-----2---2-|-(2)-2-----2--0---0---|
|o0-0-3b4-------0---0-|-(0)-0-3b4-0---------o|
|-----------3b4-------|--------------3-------|
|
|Gtr II
|---------------------|----------------------|
|o--------------------|---------------------o|
|---------------------|-------------12\--7\--|
|---------------------|-------------12\--7\--|
|o--------------------|-------------10\--5\-o|
|---------------------|----------------------|
Добавлено: 07.06.2016
Другие материалы по этой песне:
  • Аккорды и текст

Страница создана 07.06.2016
http://primanota.ru/dust/stone-woman-chords.htm
Привет, Гость.
Предлагаем пройти революционный курс по гитаре.
Подарок от PrimaNota.Ru, забирай!