PrimaNota.ru - самый крупный в мире бесплатный архив песенных текстов, аккордов, табулатур и нот


Dust - Often Shadows Felt - таба, видео

Регистрация Запомнить меня
Войти через:  Facebook Google Twitter Vk Yandex Mail.ru

Dust - Often Shadows Felt - таба, видео

Печатать
Просмотров: 153
Уроки эстрадного вокала в Санкт-Петербурге
Often Shadows Felt
by Dust

[NOTE: Missing the acoustic guitar leads]

CHORDS USED:
          Em                    C                 Gsus4/B                Am
      0 2 2 0 0 0          x 3 2 0 1 x          x 2 0 0 1 x          x 0 2 2 1 0

           D                    B                   G#m                   G
      x x 0 2 3 2          x 2 4 4 4 2          4 6 6 4 4 4          3 5 5 4 3 3

        F#sus4                 DV                   Bm                   Bb
      2 4 4 4 2 2          x 5 7 7 7 5          7 9 9 7 7 7          6 8 8 7 6 6

         Asus4                  E                   C#m                 CVIII
      5 7 7 7 5 5          x 7 9 9 9 7         9 11 11 9 9 9        8 10 10 9 8 8

         Bsus4                CIII                  AmV                  G#
      7 9 9 9 7 7          x 3 5 5 5 3          5 7 7 5 5 5          4 6 6 5 4 4

         Gsus4                 F#m                  Gm               AmV(type 2)
      3 5 5 5 3 3          2 4 4 2 2 2          3 5 5 3 3 3          5 7 7 5 5 5

          Cm                   Dm                   Ebm                 EmXII
     8 10 10 8 8 8      10 12 12 10 10 10    11 13 13 11 11 11    12 14 14 12 12 12


 Intro
  Gtr II
                 Em                  C            Gsus4/B
  W              W                    Q      +E   E +H
                 /                    /       /   /  /
  Gtr I (w/slide)                                                           4x
|------------||--------------------|--------------------------------||
|------------||o-------------------|-------------------------------o||
|---------4s=||==9-----------------|-(9)---------------------4s=====||
|------------||--------------------|--------------------------------||
|------------||o-------------------|-------------------------------o||
|------------||--------------------|--------------------------------||
| Gtr III
|------------||--------0-----------|--------------------------------||
|------------||o-----0---0---0-----|----------1----------1---------o||
|------------||----0-----------0---|-------0----0------0---0-----0--||
|------------||--2---------------2-|-----2-----------0-------0h2----||
|------------||o-----------2-------|--3-----------2----------------o||
|------------||--------------------|--------------------------------||


   Verse I
    Em                  C            Gsus4/B
    W                    Q      +E   E +H
    /                    /       /   /  /

    >
    W                   +H              Q       Q      4x
||--------------------|--------------------------------||
||o-------------------|-------------------------------o||
||--9-----------------|-(9)---------------------4------||
||--------------------|--------------------------------||
||o-------------------|-------------------------------o||
||--------------------|--------------------------------||
|
|   E E E E E E S S E    E  S S  S S E  S S S S S S E  4x
||--------0-----------|--------------------------------||
||o-----0---0---0-----|----------1----------1---------o||
||----0-----------0---|-------0----0------0---0-----0--||
||--2---------------2-|-----2-----------0-------0h2----||
||o-----------2-------|--3-----------2----------------o||
||--------------------|--------------------------------||


  Am                         D
  E E E S S +S S S S E S S   S S S S E S S S S S S E S S
  / / / / /  / / / / / / /   / / / / / / /   / / / / / /
|--------------------------|-----------------------------|
|--------------------------|-----------------------------|
|--------------------------|-----------------------------|
|--------------------------|-----------------------------|
|--------------------------|-----------------------------|
|--------------------------|-----------------------------|
|
|-0-0-0------0---0---0-----|-2---2---2-----2---2---2-----|
|-1-1-1------1---1---1-----|-3---3---3-----3---3---3-----|
|-2-2-2------2---2---2-----|-2---2---2-----2---2---2-----|
|-2-2-2------2---2---2-----|-0---0---0-----0---0---0-----|
|-0-0-0------0---0---0-----|-----------------------------|
|--------------------------|-----------------------------|


  Am                         D
  E E E S S +S S S S E S S   S S S S E S S S S S S E S S
  / / / / /  / / / / / / /   / / / / / / /   / / / / / /
|--------------------------|-----------------------7s=======||
|--------------------------|--------------------------------||
|--------------------------|--------------------------------||
|--------------------------|--------------------------------||
|--------------------------|--------------------------------||
|--------------------------|--------------------------------||
|
|-0-0-0------0---0---0-----|-2---2---2-----2---2---2--------||
|-1-1-1------1---1---1-----|-3---3---3-----3---3---3--------||
|-2-2-2------2---2---2-----|-2---2---2-----2---2---2--------||
|-2-2-2------2---2---2-----|-0---0---0-----0---0---0--------||
|-0-0-0------0---0---0-----|--------------------------------||
|--------------------------|--------------------------------||


 Verse II
  Em                   C             Gsus4/B
   W                     Q      +E   E +H
   /                     /       /   /  /
|-12-----------------|-(12)---------------------7s====|
|--------------------|--------------------------------|
|--------------------|--------------------------------|
|--------------------|--------------------------------|
|--------------------|--------------------------------|
|--------------------|--------------------------------|
|
|--------0-----0-----|--------------------------------|
|------0---0-----0---|-----------1----------1---------|
|----0-------------0-|--------0----0------0---0-----0-|
|--2-----------------|------2-----------0-------0h2---|
|------------2-------|---3-----------2----------------|
|--------------------|--------------------------------|


  Em                   C             Gsus4/B
   W                     Q      +E   E +H
   /                     /       /   /  /
|-12-----------------|-(12)---------------------7-----|
|--------------------|--------------------------------|
|--------------------|--------------------------------|
|--------------------|--------------------------------|
|--------------------|--------------------------------|
|--------------------|--------------------------------|
|
|  E E E E E E S S E     E  S S  S S E  S S S S S S E
|--------0-----0-----|--------------------------------|
|------0---0-----0---|-----------1----------1---------|
|----0-------------0-|--------0----0------0---0-----0-|
|--2-----------------|------2-----------0-------0h2---|
|------------2-------|---3-----------2----------------|
|--------------------|--------------------------------|


  Em                   C             Gsus4/B
   W                     Q      +E   E +H
   /                     /       /   /  /
|-12-----------------|-(12)---------------------7s====|
|--------------------|--------------------------------|
|--------------------|--------------------------------|
|--------------------|--------------------------------|
|--------------------|--------------------------------|
|--------------------|--------------------------------|
|
|  E E E E E E S S E     E  S S  S S E  S S S S S S E
|--------0-----0-----|--------------------------------|
|------0---0-----0---|-----------1----------1---------|
|----0-------------0-|--------0----0------0---0-----0-|
|--2-----------------|------2-----------0-------0h2---|
|------------2-------|---3-----------2----------------|
|--------------------|--------------------------------|


  Em                   C             Gsus4/B
   W                     Q      +E   E +H
   /                     /       /   /  /
|-12-----------------|-(12)---------------------------|
|--------------------|--------------------------------|
|--------------------|--------------------------------|
|--------------------|--------------------------------|
|--------------------|--------------------------------|
|--------------------|--------------------------------|
|
|  E E E E E E S S E     E  S S  S S E  S S S S S S E
|--------0-----0-----|--------------------------------|
|------0---0-----0---|-----------1----------1---------|
|----0-------------0-|--------0----0------0---0-----0-|
|--2-----------------|------2-----------0-------0h2---|
|------------2-------|---3-----------2----------------|
|--------------------|--------------------------------|


  Am                         D
  Gtr II
  E E E S S +S S S S E S S   S S S S E S S S S S S E   S S
  / / / / /  / / / / / / /   / / / / / / /   / / / /   / /
  Gtr III
|-0-0-0-0-0------0-0-0-0-0-|-2---2---2-2-2h3-3-3-3p2---2-0-|
|-1-1-1-1-1--0h1-1-1-1-1-0-|-3---3---3-3-3-3-3-3-3-3---3-0-|
|-2-2-2-2-2--2-2-2-2-2-2-0-|-2---2---2-2-2-2-2-2-2-2---2-0-|
|-2-2-2-2-2--2-2-2-2-2-2-0-|-0---0---0-0-0-0-0-0-0-0---0-0-|
|-0-0-0-0-0--0-0-0-0-0-0---|-------------------------------|
|--------------------------|-------------------------------|


  Am                         D
  E E E S S +S S S S E S S   S S S S E S S S S S S E   S S
  / / / / /  / / / / / / /   / / / / / / /   / / / /   / /
|-0-0-0-0-0------0-0-0-0-0-|-0h2-2-2-2-2-2h3-3-3-3p2---2-0---||
|-1-1-1-1-1--0h1-1-1-1-1-0-|-3-3-3-3-3-3-3-3-3-3-3-3---3-0---||
|-2-2-2-2-2--2-2-2-2-2-2-0-|-2-2-2-2-2-2-2-2-2-2-2-2---2-0---||
|-2-2-2-2-2--2-2-2-2-2-2-0-|-0-0-0-0-0-0-0-0-0-0-0-0---0-0---||
|-0-0-0-0-0--0-0-0-0-0-0---|---------------------------------||
|--------------------------|---------------------------------||


 Chorus I
  Gtrs II, III
  Em                                |-3-| |-3-|
  E E E E E E E E   S S S S S S S S E E E E E E
  / / / / / / / /   / / / / / / / / / / / / / /
  Gtr I
|-----------------|-----------------------------|
|-----------------|-----------------------------|
|-----------------|-----------------------4s====|
|-----------------|-----------------------------|
|-----------------|-----------------------------|
|-----------------|-----------------------------|


  Em                               C            D
    E S S E S S   S  S S S E S S   E  S S E S S  S  S S S S S  S S
    / / / / / /   /  / / / / / /   /  / / / / /  /  / / / / /  / /
  Gtr V (w/slide)
|--12-----------(12)---------7s==|=8--------8s==10------------10s==|
|-/12-----------(12)---------7s==|=8--------8s==10------------10s==|
|--------------------------------|---------------------------------|
|--------------------------------|---------------------------------|
|--------------------------------|---------------------------------|
|--------------------------------|---------------------------------|
| Gtr I
|--------------------------------|---------------------------------|
|--------------------------------|---------------------------------|
|---9------------(9)---------4s==|=5--------5s===7-------------7s==|
|--------------------------------|---------------------------------|
|--------------------------------|---------------------------------|
|--------------------------------|---------------------------------|


  Em                              C            D
   E S S E S S   S  S S S E S S   E  S S E S S  S  S S S S S  S S
   / / / / / /   /  / / / / / /   /  / / / / /  /  / / / / /  / /
|-12-----------(12)---------7s==|=8--------8s==10------------10s====|
|-12-----------(12)---------7s==|=8--------8s==10------------10s====|
|-------------------------------|-----------------------------------|
|-------------------------------|-----------------------------------|
|-------------------------------|-----------------------------------|
|-------------------------------|-----------------------------------|
|
|-------------------------------|-----------------------------------|
|-------------------------------|-----------------------------------|
|--9------------(9)---------4s==|=5--------5s===7-------------7s====|
|-------------------------------|-----------------------------------|
|-------------------------------|-----------------------------------|
|-------------------------------|-----------------------------------|


  Em                              C            D
   E S S E S S   S  S S S E S S   E  S S E S S  S  S S S S S  S S
   / / / / / /   /  / / / / / /   /  / / / / /  /  / / / / /  / /
|-12-----------(12)---------7s==|=8--------8s==10------------10s==|
|-12-----------(12)---------7s==|=8--------8s==10------------10s==|
|-------------------------------|---------------------------------|
|-------------------------------|---------------------------------|
|-------------------------------|---------------------------------|
|-------------------------------|---------------------------------|
|
|-------------------------------|---------------------------------|
|-------------------------------|---------------------------------|
|--9------------(9)---------4s==|=5--------5s===7-------------7s==|
|-------------------------------|---------------------------------|
|-------------------------------|---------------------------------|
|-------------------------------|---------------------------------|


  Em                            C                D
   E S S E S S   E  S S E S S   S  S S S S S S S  S  S S S S S  S S
   / / / / / /   /  / / / / /   /  / / / / / / /  /  / / / / /  / /
|-12-----------(12)-------7s==|=8------------8s==10------------10s===|
|-12-----------(12)-------7s==|=8------------8s==10------------10----|
|-----------------------------|--------------------------------------|
|-----------------------------|--------------------------------------|
|-----------------------------|--------------------------------------|
|-----------------------------|--------------------------------------|
|
|-----------------------------|--------------------------------------|
|-----------------------------|--------------------------------------|
|--9------------(9)-------4s==|=5------------5s===7-------------7s===|
|-----------------------------|--------------------------------------|
|-----------------------------|--------------------------------------|
|-----------------------------|--------------------------------------|


  Em                              C            D
   E S S E S S   S  S S S E S S   E  S S E S S  S  S S S S S  S S
   / / / / / /   /  / / / / / /   /  / / / / /  /  / / / / /  / /
|-12-----------(12)---------7s==|=8--------8s==10------------10s==|
|-12-----------(12)---------7s==|=8--------8s==10------------10s==|
|-------------------------------|---------------------------------|
|-------------------------------|---------------------------------|
|-------------------------------|---------------------------------|
|-------------------------------|---------------------------------|
|
|-------------------------------|---------------------------------|
|-------------------------------|---------------------------------|
|--9------------(9)---------4s==|=5--------5s===7-------------7s==|
|-------------------------------|---------------------------------|
|-------------------------------|---------------------------------|
|-------------------------------|---------------------------------|


  Em
   E S S E S S   S  S E E S S   E E S E E S S E S S S
   / / / / / /   /  / / / / /   / / / / / / / / / / /
|-12-----------(12)-----------|------------------------|
|-12-----------(12)-----------|------------------------|
|-----------------------------|------------------------|
|-----------------------------|------------------------|
|-----------------------------|------------------------|
|-----------------------------|------------------------|
|
|-----------------------------|------------------------|
|-----------------------------|------------------------|
|--9------------(9)-----------|------------------------|
|-----------------------------|------------------------|
|-----------------------------|------------------------|
|-----------------------------|------------------------|

  Gtr II
  D       C         Em                D       C
  H       H         W                 H       H
  /       /         /                 /       /
  Gtr III
|-----2-------0---|---------0-------|-----2-------0---||
|-------3---1---1-|-----------0-----|-------3---1---1-||
|---2-----0-------|-------0-----0---|---2-----0-------||
|-0---------------|-----2---------2-|-0---------------||
|-----------------|---2-------------|-----------------||
|-----------------|-0---------------|-----------------||


   Interlude
    B                                   G#m          G          F#sus4
    E   S S S S E   S S S S E   S S     E  S S S S   E  S S S S E S S
    /   / / / / /   / / / / /   / /     /  / / / /   /  / / / / / / /
    Gtr I                                                              4x
||------7h9-7-------7h9-7-------7---|------7---7--------7---7-----7----||
||o-7h9-------9-7h9-------9-7h9-----|-7h9----9-----7h8----8-----7-----o||
||----------------------------------|----------------------------------||
||----------------------------------|----------------------------------||
||o---------------------------------|---------------------------------o||
||----------------------------------|----------------------------------||
|   Gtr III
||--2-----------2-----------2-------|---4------------3----------2------||
||o-4-----------4-----------4-------|---4------------3----------2-----o||
||--4-----------4-----------4-------|---4------------4----------4------||
||--4-----------4-----------4-------|---6------------5----------4------||
||o-2-----------2-----------2-------|---6------------5----------4-----o||
||----------------------------------|---4------------3----------2------||

  D                                                   Bm                Bb             Asus4
   E     S  S  S  S  E     S  S  S  S  E     S S       E   S  S  S S     E   S  S  S S  E  S S
   /     /  /  /  /  /     /  /  /  /  /     / /       /   /  /  / /     /   /  /  / /  /  / /
|-------10h12-10----------10h12-10----------10---|--------10----10----------10----10------10---|
|-10h12----------12-10h12----------12-10h12------|-10h12-----12------10h11-----11------10------|
|------------------------------------------------|---------------------------------------------|
|------------------------------------------------|---------------------------------------------|
|------------------------------------------------|---------------------------------------------|
|------------------------------------------------|---------------------------------------------|
|
|--5-----------------5-----------------5---------|-----7-----------------6--------------5------|
|--7-----------------7-----------------7---------|-----7-----------------6--------------5------|
|--7-----------------7-----------------7---------|-----7-----------------7--------------7------|
|--7-----------------7-----------------7---------|-----9-----------------8--------------7------|
|--5-----------------5-----------------5---------|-----9-----------------8--------------7------|
|------------------------------------------------|-----7-----------------6--------------5------|


  E                                                   C#m               C              Bsus4
   E     S  S  S  S  E     S  S  S  S  E     S S       E   S  S  S S     E   S  S  S S  E  S S
   /     /  /  /  /  /     /  /  /  /  /     / /       /   /  /  / /     /   /  /  / /  /  / /
|-------12h14-12----------12h14-12----------12---|--------12----12----------12----12------12---|
|-12h14----------14-12h14----------14-12h14------|-12h14-----14------12h13-----13------12------|
|------------------------------------------------|---------------------------------------------|
|------------------------------------------------|---------------------------------------------|
|------------------------------------------------|---------------------------------------------|
|------------------------------------------------|---------------------------------------------|
|
|--7-----------------7-----------------7---------|-----9-----------------8--------------7------|
|--9-----------------9-----------------9---------|-----9-----------------8--------------7------|
|--9-----------------9-----------------9---------|-----9-----------------9--------------9------|
|--9-----------------9-----------------9---------|----11----------------10--------------9------|
|--7-----------------7-----------------7---------|----11----------------10--------------9------|
|------------------------------------------------|-----9-----------------8--------------7------|


  D                                                   Bm                Bb             Asus4
   E     S  S  S  S  E     S  S  S  S  E     S S       E   S  S  S S     E   S  S  S S  E  S S
   /     /  /  /  /  /     /  /  /  /  /     / /       /   /  /  / /     /   /  /  / /  /  / /
|-------10h12-10----------10h12-10----------10---|--------10----10----------10----10------10---|
|-10h12----------12-10h12----------12-10h12------|-10h12-----12------10h11-----11------10------|
|------------------------------------------------|---------------------------------------------|
|------------------------------------------------|---------------------------------------------|
|------------------------------------------------|---------------------------------------------|
|------------------------------------------------|---------------------------------------------|
|
|--5-----------------5-----------------5---------|-----7-----------------6--------------5------|
|--7-----------------7-----------------7---------|-----7-----------------6--------------5------|
|--7-----------------7-----------------7---------|-----7-----------------7--------------7------|
|--7-----------------7-----------------7---------|-----9-----------------8--------------7------|
|--5-----------------5-----------------5---------|-----9-----------------8--------------7------|
|------------------------------------------------|-----7-----------------6--------------5------|


    C                                        B
    E    S  S S  S E    S  S S  S E    S S   E   S S S S E   S S S S E   S S
    /    /  / /  / /    /  / /  / /    / /   /   / / / / /   / / / / /   / /
||-------8h10-8---------8h10-8---------8---|-----7h9-7-------7h9-7-------7-------||
||o-8h10--------10-8h10--------10-8h10-----|-7h9-------9-7h9-------9-7h9--------o||
||-----------------------------------------|-------------------------------------||
||-----------------------------------------|-------------------------------------||
||o----------------------------------------|------------------------------------o||
||-----------------------------------------|-------------------------------------||
|
||--3--------------3--------------3--------|-2-----------2-----------2-----------||
||o-5--------------5--------------5--------|-4-----------4-----------4----------o||
||--5--------------5--------------5--------|-4-----------4-----------4-----------||
||--5--------------5--------------5--------|-4-----------4-----------4-----------||
||o-3--------------3--------------3--------|-2-----------2-----------2----------o||
||-----------------------------------------|-------------------------------------||


 Guitar Solo [Just the backing guitars parts]
  Gtr II
    Em                   C             Gsus4/B
     W                     Q      +E   E +H
     /                     /       /   /  /
| Gtr I
|-7s12-----------------|-(12)---------------------------|
|----------------------|--------------------------------|
|----------------------|--------------------------4s====|
|----------------------|--------------------------------|
|----------------------|--------------------------------|
|----------------------|--------------------------------|
| Gtr III
|----------0-----------|--------------------------------|
|--------0---0---0-----|-----------1----------1---------|
|------0-----------0---|--------0----0------0---0-----0-|
|----2---------------2-|------2-----------0-------0h2---|
|--------------2-------|---3-----------2----------------|
|----------------------|--------------------------------|


  Em                  C            Gsus4/B
  W                    Q      +E   E +H
  /                    /       /   /  /
|-------------------|---------------------------------|
|-------------------|---------------------------------|
|-9-----------------|-(9)---------------------4s======|
|-------------------|---------------------------------|
|-------------------|---------------------------------|
|-------------------|---------------------------------|
|
|-------0-----------|---------------------------------|
|-----0---0---0-----|----------1----------1-----------|
|---0-----------0---|-------0----0------0---0-----0---|
|-2---------------2-|-----2-----------0-------0h2-----|
|-----------2-------|--3-----------2------------------|
|-------------------|---------------------------------|


  Em                  C            Gsus4/B
  W                    Q      +E   E +H
  /                    /       /   /  /
|-------------------|-------------------------------|
|-------------------|-------------------------------|
|-9-----------------|-(9)---------------------4s====|
|-------------------|-------------------------------|
|-------------------|-------------------------------|
|-------------------|-------------------------------|
|
|-------0-----------|-------------------------------|
|-----0---0---0-----|----------1----------1---------|
|---0-----------0---|-------0----0------0---0-----0-|
|-2---------------2-|-----2-----------0-------0h2---|
|-----------2-------|--3-----------2----------------|
|-------------------|-------------------------------|


  Em                  C            Gsus4/B
  W                    Q      +E   E +H
  /                    /       /   /  /
|-------------------|-------------------------------||
|-------------------|-------------------------------||
|-------------------|-------------------------------||
|-------------------|-------------------------------||
|-------------------|-------------------------------||
|-------------------|-------------------------------||
|
|-------------------|-------------------------7s====||
|-------------------|-------------------------------||
|-9-----------------|-(9)---------------------------||
|-------------------|-------------------------------||
|-------------------|-------------------------------||
|-------------------|-------------------------------||
|
|-------0-----------|-------------------------------||
|-----0---0---0-----|----------1----------1---------||
|---0-----------0---|-------0----0------0---0-----0-||
|-2---------------2-|-----2-----------0-------0h2---||
|-----------2-------|--3-----------2----------------||
|-------------------|-------------------------------||


 Verse III
  Em                   C             Gsus4/B
   W                     Q      +E   E +H
   /                     /       /   /  /
|-12-----------------|-(12)---------------------7s====|
|--------------------|--------------------------------|
|--------------------|--------------------------------|
|--------------------|--------------------------------|
|--------------------|--------------------------------|
|--------------------|--------------------------------|
|
|--------0-----0-----|--------------------------------|
|------0---0-----0---|-----------1----------1---------|
|----0-------------0-|--------0----0------0---0-----0-|
|--2-----------------|------2-----------0-------0h2---|
|------------2-------|---3-----------2----------------|
|--------------------|--------------------------------|


  Em                   C             Gsus4/B
   W                     Q      +E   E +H
   /                     /       /   /  /
|-12-----------------|-(12)---------------------7s====|
|--------------------|--------------------------------|
|--------------------|--------------------------------|
|--------------------|--------------------------------|
|--------------------|--------------------------------|
|--------------------|--------------------------------|
|
|--------0-----0-----|--------------------------------|
|------0---0-----0---|-----------1----------1---------|
|----0-------------0-|--------0----0------0---0-----0-|
|--2-----------------|------2-----------0-------0h2---|
|------------2-------|---3-----------2----------------|
|--------------------|--------------------------------|


  Em                   C             Gsus4/B
   W                     Q      +E   E +H
   /                     /       /   /  /
|-12-----------------|-(12)---------------------7s====|
|--------------------|--------------------------------|
|--------------------|--------------------------------|
|--------------------|--------------------------------|
|--------------------|--------------------------------|
|--------------------|--------------------------------|
|
|  E E E E E E S S E     E  S S  S S E  S S S S S S E
|--------0-----0-----|--------------------------------|
|------0---0-----0---|-----------1----------1---------|
|----0-------------0-|--------0----0------0---0-----0-|
|--2-----------------|------2-----------0-------0h2---|
|------------2-------|---3-----------2----------------|
|--------------------|--------------------------------|


  Em                   C             Gsus4/B
   W                     Q      +E   E +H
   /                     /       /   /  /
|-12-----------------|-(12)---------------------------|
|--------------------|--------------------------------|
|--------------------|--------------------------------|
|--------------------|--------------------------------|
|--------------------|--------------------------------|
|--------------------|--------------------------------|
|
|--------0-----0-----|--------------------------------|
|------0---0-----0---|-----------1----------1---------|
|----0-------------0-|--------0----0------0---0-----0-|
|--2-----------------|------2-----------0-------0h2---|
|------------2-------|---3-----------2----------------|
|--------------------|--------------------------------|

  Gtr II
  Am                         D
  E E E S S +S S S S E S S   S S S S E S S S S S S E   S S
  / / / / /  / / / / / / /   / / / / / / /   / / / /   / /
  Gtr III
|-0-0-0-0-0------0-0-0-0-0-|-2---2---2-2-2h3-3-3-3p2---2-0-|
|-1-1-1-1-1--0h1-1-1-1-1-0-|-3---3---3-3-3-3-3-3-3-3---3-0-|
|-2-2-2-2-2--2-2-2-2-2-2-0-|-2---2---2-2-2-2-2-2-2-2---2-0-|
|-2-2-2-2-2--2-2-2-2-2-2-0-|-0---0---0-0-0-0-0-0-0-0---0-0-|
|-0-0-0-0-0--0-0-0-0-0-0---|-------------------------------|
|--------------------------|-------------------------------|


  Am                         D
  E E E S S +S S S S E S S   S S S S E S S S S S S E   S S
  / / / / /  / / / / / / /   / / / / / / /   / / / /   / /
|-0-0-0-0-0------0-0-0-0-0-|-0h2-2-2-2-2-2h3-3-3-3p2---2-0---||
|-1-1-1-1-1--0h1-1-1-1-1-0-|-3-3-3-3-3-3-3-3-3-3-3-3---3-0---||
|-2-2-2-2-2--2-2-2-2-2-2-0-|-2-2-2-2-2-2-2-2-2-2-2-2---2-0---||
|-2-2-2-2-2--2-2-2-2-2-2-0-|-0-0-0-0-0-0-0-0-0-0-0-0---0-0---||
|-0-0-0-0-0--0-0-0-0-0-0---|---------------------------------||
|--------------------------|---------------------------------||


 Chorus II
  Gtrs II, III
    Em                              |-3-| |-3-|
  E E E E E E E E   S S S S S S S S E E E E E E
  / / / / / / / /   / / / / / / / / / / / / / /
  Gtr I
|-----------------|-----------------------------|
|-----------------|-----------------------------|
|-----------------|-----------------------4s====|
|-----------------|-----------------------------|
|-----------------|-----------------------------|
|-----------------|-----------------------------|


  Em                               C            D
    E S S E S S   S  S S S E S S   E  S S E S S  S  S S S S S  S S
    / / / / / /   /  / / / / / /   /  / / / / /  /  / / / / /  / /
  Gtr V (w/slide)
|--12-----------(12)---------7s==|=8--------8s==10------------10s==|
|-/12-----------(12)---------7s==|=8--------8s==10------------10s==|
|--------------------------------|---------------------------------|
|--------------------------------|---------------------------------|
|--------------------------------|---------------------------------|
|--------------------------------|---------------------------------|
| Gtr I
|--------------------------------|---------------------------------|
|--------------------------------|---------------------------------|
|---9------------(9)---------4s==|=5--------5s===7-------------7s==|
|--------------------------------|---------------------------------|
|--------------------------------|---------------------------------|
|--------------------------------|---------------------------------|


  Em                               C              D
   E S S E S S   S  S S S E  S S    E  S S E  S S  S S S S  S  S  S S
   / / / / / /   /  / / / /  / /    /  / / /  / /  / / / /  /  /  / /
|-12-----------(12)---------12s==|=15--------15s==17-------17\---10s====|
|-12-----------(12)--------------|-------------------------------10s====|
|--------------------------------|--------------------------------------|
|--------------------------------|--------------------------------------|
|--------------------------------|--------------------------------------|
|--------------------------------|--------------------------------------|
|
|--------------------------------|--------------------------------------|
|--------------------------------|--------------------------------------|
|--9------------(9)----------9s==|=12--------12s==14-------14\----7s====|
|--------------------------------|--------------------------------------|
|--------------------------------|--------------------------------------|
|--------------------------------|--------------------------------------|


  Em                              C            D
   E S S E S S   S  S S S E S S   E  S S E S S  S  S S S S S  S S
   / / / / / /   /  / / / / / /   /  / / / / /  /  / / / / /  / /
|-12-----------(12)---------7s==|=8--------8s==10------------10s==|
|-12-----------(12)---------7s==|=8--------8s==10------------10s==|
|-------------------------------|---------------------------------|
|-------------------------------|---------------------------------|
|-------------------------------|---------------------------------|
|-------------------------------|---------------------------------|
|
|-------------------------------|---------------------------------|
|-------------------------------|---------------------------------|
|--9------------(9)---------4s==|=5--------5s===7-------------7s==|
|-------------------------------|---------------------------------|
|-------------------------------|---------------------------------|
|-------------------------------|---------------------------------|


  Em                               C              D
   E S S E S S   S  S S S E  S S    E  S S E  S S  S  S S S S S  S S
   / / / / / /   /  / / / /  / /    /  / / /  / /  /  / / / / /  / /
|-12-----------(12)---------12s==|=15--------15s==17------------17s====|
|-12-----------(12)--------------|-------------------------------------|
|--------------------------------|-------------------------------------|
|--------------------------------|-------------------------------------|
|--------------------------------|-------------------------------------|
|--------------------------------|-------------------------------------|
|
|--------------------------------|-------------------------------------|
|--------------------------------|-------------------------------------|
|--9------------(9)----------9s==|=12--------12s==14------------14-----|
|--------------------------------|-------------------------------------|
|--------------------------------|-------------------------------------|
|--------------------------------|-------------------------------------|


  Em                               C              D
   E S S E S S   S  S S S E  S S    E  S S E  S S  S  S S S S S  S S
   / / / / / /   /  / / / /  / /    /  / / /  / /  /  / / / / /  / /
|-24-----------(24)---------19s==|=20--------20s==22------------22s==|
|--------------------------------|-----------------------------------|
|--------------------------------|-----------------------------------|
|--------------------------------|-----------------------------------|
|--------------------------------|-----------------------------------|
|--------------------------------|-----------------------------------|
|
|--------------------------------|-----------------------------------|
|--------------------------------|-----------------------------------|
|--9------------(9)----------4s==|==5---------5s===7-------------7s==|
|--------------------------------|-----------------------------------|
|--------------------------------|-----------------------------------|
|--------------------------------|-----------------------------------|


  Em
   E S S E S S   S  S S S E S S   E E S E E S S E S S S
   / / / / / /   /  / / / / / /   / / / / / / / / / / /
|-24-----------(24)-------------|-----------------------|
|-------------------------------|-----------------------|
|-------------------------------|-----------------------|
|-------------------------------|-----------------------|
|-------------------------------|-----------------------|
|-------------------------------|-----------------------|
|
|-------------------------------|-----------------------|
|-------------------------------|-----------------------|
|--9------------(9)-------------|-----------------------|
|-------------------------------|-----------------------|
|-------------------------------|-----------------------|
|-------------------------------|-----------------------|

  Gtr II
  D       C         Em
                                                      |--3--|   |--3--|
  H       H         E E E E E E E E   S S S S S S S S E E   E   E E   E
  /       /         / / / / / / / /   / / / / / / / / / /   /   / /   /
  Gtrs I, V
|-----------------|-----------------|---------------------------------------||
|-----------------|-----------------|---------------------------------------||
|-----------------|-----------------|---------------------------4s======12--||
|-----------------|-----------------|---------------------------------------||
|-----------------|-----------------|---------------------------------------||
|-----------------|-----------------|---------------------------------------||
| Gtr III
|-----2-------0---|-0-0-0-0-0-0-0-0-|-0-0-0-0-0-0-0-0-0---0---0-0---0----0--||
|-------3---1---1-|-0-0-0-0-0-0-0-0-|-0-0-0-0-0-0-0-0-0---0---0-0---0----0--||
|---2-----0-------|-0-0-0-0-0-0-0-0-|-0-0-0-0-0-0-0-0-0---0---0-0---0----0--||
|-0---------------|-2-2-2-2-2-2-2-2-|-2-2-2-2-2-2-2-2-2---2---2-2---2----2--||
|-----------------|-2-2-2-2-2-2-2-2-|-2-2-2-2-2-2-2-2-2---2---2-2---2----2--||
|-----------------|-0-0-0-0-0-0-0-0-|-0-0-0-0-0-0-0-0-0---0---0-0---0----0--||


 Outro
  Gtr II
  Em                               C            D
   E S S E S S   S  S S S E  S S   E  S S E S S  S  S S S S S  S S
   / / / / / /   /  / / / /  / /   /  / / / / /  /  / / / / /  / /
  Gtrs I, V
|-12-----------(12)---------12s==|=8--------8s==10------------10s==|
|--------------------------------|---------------------------------|
|--------------------------------|---------------------------------|
|--------------------------------|---------------------------------|
|--------------------------------|---------------------------------|
|--------------------------------|---------------------------------|


  Em                              C            D
   E S S E S S   S  S S S E S S   E  S S E S S S  S S S S S S S
   / / / / / /   /  / / / / / /   /  / / / / / /  / / / / / / /
|-12-----------(12)-------------|---------------------------7s====|
|-------------------------------|---------------------------------|
|---------------------------4s==|=5--------5s==7------------------|
|-------------------------------|---------------------------------|
|-------------------------------|---------------------------------|
|-------------------------------|---------------------------------|


  Em                              C            D
   E S S E S S   S  S S S E S S   E  S S E S S S  S S S S S S S
   / / / / / /   /  / / / / / /   /  / / / / / /  / / / / / / /
|-12-----------(12)---------7s==|=8-------------------------7s==|
|-------------------------------|-------------------------------|
|-------------------------------|----------5s==7----------------|
|-------------------------------|-------------------------------|
|-------------------------------|-------------------------------|
|-------------------------------|-------------------------------|


  Em                                C            D
   E S S E S S   S  S S S  E  S S   E  S S E S S  S  S S S S S  S S
   / / / / / /   /  / / /  /  / /   /  / / / / /  /  / / / / /  / /
|-12-----------(12)-------12\-7s==|=8--------8s==10------------10s====|
|---------------------------------|-----------------------------------|
|---------------------------------|-----------------------------------|
|---------------------------------|-----------------------------------|
|---------------------------------|-----------------------------------|
|---------------------------------|-----------------------------------|


  Em                              C            D
   E S S E S S   S  S S S E S S   E  S S E S S S  S S S S S S S
   / / / / / /   /  / / / / / /   /  / / / / / /  / / / / / / /
|-12-----------(12)-------------|-------------------------------|
|-------------------------------|-------------------------------|
|---------------------------4s==|=5--------5s==7------------7s==|
|-------------------------------|-------------------------------|
|-------------------------------|-------------------------------|
|-------------------------------|-------------------------------|


  Em
  E S S E S S  S  S S S E S S   E E S E E S S E S S S
  / / / / / /  /  / / / / / /   / / / / / / / / / / /
|-----------------------------|-----------------------|
|-----------------------------|-----------------------|
|-9-----------(9)-------------|-----------------------|
|-----------------------------|-----------------------|
|-----------------------------|-----------------------|
|-----------------------------|-----------------------|


  Em    F#m   Gm    Am      Bm    Cm    Dm    Ebm
  S S E S S E S S E S S E   S S E S S E S S E S S E
  / / / / / / / / / / / /   / / / / / / / / / / / /
|-------------------------|-------------------------|
|-------------------------|-------------------------|
|-------------------------|-------------------------|
|-------------------------|-------------------------|
|-------------------------|-------------------------|
|-------------------------|-------------------------|


  Em
  S S S S S S S S S S E +Q    +W
  / / / / / / / / / / /  /     /
|---------------------------|-------*|
|---------------------------|-------*|
|---------------------------|-------*|
|---------------------------|-------*|
|---------------------------|-------*|
|---------------------------|-------*|
Добавлено: 05.05.2016
Вам также может быть интересно:
Другие материалы по этой песне:
  • Аккорды и текст

Страница создана 05.05.2016
http://primanota.ru/dust/often-shadows-felt-chords.htm
Привет, Гость.
Предлагаем пройти революционный курс по гитаре.
Подарок от PrimaNota.Ru, забирай!