PrimaNota.ru - самый крупный в мире бесплатный архив песенных текстов, аккордов, табулатур и нот


Dust - Love Me Hard - таба, видео

Регистрация Запомнить меня
Войти через:  Facebook Google Twitter Vk Yandex Mail.ru

Dust - Love Me Hard - таба, видео

Печатать
Просмотров: 105
Уроки эстрадного вокала в Санкт-Петербурге
Love Me Hard
by Dust

[NOTE: This is just the rhythm guitar part... no lead]

 Intro
    PM----------------------------|     PM--|   PM--|     PM  PM  PM  PM
|-----------------|-----------------|-----------------|------------------|
|-----------------|-----------------|-----------------|------------------|
|-9---------------|-----------------|-9-------9-------|-9---9---9---9----|
|-9---------------|-----------------|-9-------9-------|-9---9---9---9----|
|-7---------------|-----------------|-7-------7-------|-7---7---7---7----|
|-0-0-0-0-0-0-0-0-|-0-0-0-0-0-0-0-0-|-0-0-0-0-0-0-0-0-|-0-0-0-0-0-0-0-0--|


      PM--------|       PM--------|       PM|      PM|       PM--------|
|-----------------|-----------------|------------------|-----------------|
|-----------------|-----------------|------------------|-----------------|
|-7s9-------------|-7s9-------------|-7s9-----12s9-----|-7s9-------------|
|-7s9-------------|-7s9-------------|-7s9-----12s9-----|-7s9-------------|
|-5s7-------------|-5s7-------------|-5s7-----10s7-----|-5s7-------------|
|-----0-0-0-0-0-0-|-----0-0-0-0-0-0-|-----0-0------0-0-|-----0-0-0-0-0-0-|


      PM--------|       PM--------|       PM|      PM|       PM|
|-----------------|-----------------|------------------|-----------------||
|-----------------|-----------------|------------------|-----------------||
|-7s9-------------|-7s9-------------|-7s9-----12s9-----|-7s9-----9-9-9-0-||
|-7s9-------------|-7s9-------------|-7s9-----12s9-----|-7s9-----9-9-9-0-||
|-5s7-------------|-5s7-------------|-5s7-----10s7-----|-5s7-----7-7-7-0-||
|-----0-0-0-0-0-0-|-----0-0-0-0-0-0-|-----0-0------0-0-|-----0-0-0-0-0-0-||


   Verse I
    $
||------------|----------------|-----------|-----------------|
||o-----------|----------------|-----------|-----------------|
||------------|----------------|-----------|-----------------|
||--7----7----|-7--7-0---------|-7----7----|-7--7-0----------|
||o-7----7----|-7--7-0-3p0-4p0-|-7----7----|-7--7-0-5p0-5p0--|
||--5----5----|-5--5-0-3p0-4p0-|-5----5----|-5--5-0-5p0-5p0--|


      PM--------|       PM--------|       PM|      PM|       PM|
|-----------------|-----------------|------------------|------------------||
|-----------------|-----------------|------------------|-----------------o||
|-7s9-------------|-7s9-------------|-7s9-----12s9-----|-7s9-----9-9-9-0--||
|-7s9-------------|-7s9-------------|-7s9-----12s9-----|-7s9-----9-9-9-0--||
|-5s7-------------|-5s7-------------|-5s7-----10s7-----|-5s7-----7-7-7-0-o||
|-----0-0-0-0-0-0-|-----0-0-0-0-0-0-|-----0-0------0-0-|-----0-0-0-0-0-0--||


 Chorus I
|-----------------|-----------------|-----------------|-----------------|
|-----------------|-----------------|-----------------|-----------------|
|-4-4-4-0-7-7-7-0-|-9-9-9-9-9-9-9-0-|-4-4-4-0-7-7-7-7-|-7-7-7-7-7-7-7-7-|
|-5-5-5-0-7-7-7-0-|-9-9-9-9-9-9-9-0-|-5-5-5-0-7-7-7-7-|-7-7-7-7-7-7-7-7-|
|-5-5-5-0-5-5-5-0-|-7-7-7-7-7-7-7-0-|-5-5-5-0-5-5-5-5-|-5-5-5-5-5-5-5-5-|
|-3-3-3---5-5-5---|-7-7-7-7-7-7-7---|-3-3-3---5-5-5-5-|-5-5-5-5-5-5-5-5-|


      PM--------|       PM--------|       PM|      PM|       PM--------|
| E E E E E E E E   E E E E E E E E   E E E E  E E E E   E E E E E E E E
|-----------------|-----------------|------------------|-----------------|
|-----------------|-----------------|------------------|-----------------|
|-7s9-------------|-7s9-------------|-7s9-----12s9-----|-7s9-------------|
|-7s9-------------|-7s9-------------|-7s9-----12s9-----|-7s9-------------|
|-5s7-------------|-5s7-------------|-5s7-----10s7-----|-5s7-------------|
|-----0-0-0-0-0-0-|-----0-0-0-0-0-0-|-----0-0------0-0-|-----0-0-0-0-0-0-|

                                                                   D.S.
      PM--------|       PM--------|       PM|      PM|       PM|
|-----------------|-----------------|------------------|-----------------||
|-----------------|-----------------|------------------|-----------------||
|-7s9-------------|-7s9-------------|-7s9-----12s9-----|-7s9-----9-9-9-0-||
|-7s9-------------|-7s9-------------|-7s9-----12s9-----|-7s9-----9-9-9-0-||
|-5s7-------------|-5s7-------------|-5s7-----10s7-----|-5s7-----7-7-7-0-||
|-----0-0-0-0-0-0-|-----0-0-0-0-0-0-|-----0-0------0-0-|-----0-0-0-0-0-0-||


   Bridge
    PM------------------------------|
||------------------|-----------------|-----------------|------------------|
||o-----------------|-----------------|-----------------|------------------|
||------------------|-----------------|-----------------|------------------|
||------------------|-----------------|-----------------|-5-5-5-5-5-5-5-0--|
||o-----------------|---------5-5-5-5-|-5-5-5-5-5-5-5-5-|-5-5-5-5-5-5-5-0--|
||--3-3-3-3-3-3-3-3-|-3-3-3-3-3-3-3-3-|-3-3-3-3-3-3-3-3-|-3-3-3-3-3-3-3-0--|


                      1.,2.,3.               4.
|--------------------|---------------------||--------------------||
|--------------------|--------------------o||--------------------||
|-9\--7-9-(9)\-7-9-7-|-9\--7-9-(9)\-7-9\---||-9\--7-9-(9)\-7-9s==||
|-9\--7-9-(9)\-7-9-7-|-9\--7-9-(9)\-7-9\---||-9\--7-9-(9)\-7-9s==||
|-7\--5-7-(7)\-5-7-5-|-7\--5-7-(7)\-5-7\--o||-7\--5-7-(7)\-5-7s==||
|--------------------|---------------------||--------------------||


 Interlude
  Gtr II
|-^0--------|--(0)----^0--^0--|-^0--------|-(0)----^0--^0--|
|-^0--------|--(0)----^0--^0--|-^0--------|-(0)----^0--^0--|
|-^4--------|--(4)----^4--^2--|-^1--------|-(1)----^1--^2--|
|-^5--------|--(5)----^5--^3--|-^2--------|-(2)----^2--^3--|
|-^5--------|--(5)----^5--^3--|-^2--------|-(2)----^2--^3--|
|-^3--------|--(3)----^3--^1--|-^0--------|-(0)----^0--^1--|
|
| Gtr I
|-----------|-----------------|-----------|----------------|
|-----------|-----------------|-----------|----------------|
|-12--------|-(12)------------|-----------|----------------|
|-12--------|-(12)------------|-----------|----------------|
|-10--------|-(10)------------|-----------|----------------|
|-----------|-----------------|-----------|----------------|


  Gtr II
   W          +h      Q   Q     W          +H      Q   Q
|-^0--------|-(0)----^0--^0--|-^0--------|-(0)----^0--^0--|
|-^0--------|-(0)----^0--^0--|-^0--------|-(0)----^0--^0--|
|-^4--------|-(4)----^4--^2--|-^1--------|-(1)----^1--^2--|
|-^5--------|-(5)----^5--^3--|-^2--------|-(2)----^2--^3--|
|-^5--------|-(5)----^5--^3--|-^2--------|-(2)----^2--^3--|
|-^3--------|-(3)----^3--^1--|-^0--------|-(0)----^0--^1--|


    Gtr IV
||--^0----0-----0---|-----0-----^0--^0--|
||o-^0------0-----0-|-------0---^0--^0--|
||--^4--4-----4-----|--4------4-^4--^2--|
||------------------|-------------------|
||o-----------------|-------------------|
||------------------|-------------------|
|   Gtr III
||--^0--------------|-(0)-------^0--^0--|
||o-^0--------------|-(0)-------^0--^0--|
||--^4--------------|-(4)-------^4--^2--|
||--^5--------------|-(5)-------^5--^3--|
||o-^5--------------|-(5)-------^5--^3--|
||--^3--------------|-(3)-------^3--^1--|



|-^0----0-----0---|-----0-----^0--^0----||
|-^0------0-----0-|-------0---^0--^0---o||
|-^1--1-----1-----|--1------1-^1--^2----||
|-----------------|---------------------||
|-----------------|--------------------o||
|-----------------|---------------------||
|
|-^0--------------|-(0)-------^0--^0----||
|-^0--------------|-(0)-------^0--^0---o||
|-^1--------------|-(1)-------^1--^2----||
|-^2--------------|-(2)-------^2--^3----||
|-^2--------------|-(2)-------^2--^3---o||
|-^0--------------|-(0)-------^0--^1----||


  Gtr V
|------------------------|------------------------|
|------------------------|------------------------|
|------------------------|------------------------|
|-^12-----12-------12----|-----12-------^12--^10--|
|-^10--------10-------10-|--------10----^10--^-8--|
|-^10--10-------10-------|-10--------10-^10--^-8--|
| Gtr IV
|-^-0------0--------0----|------0-------^-0--^-0--|
|-^-0---------0--------0-|---------0----^-0--^-0--|
|-^-4---4--------4-------|--4---------4-^-4--^-2--|
|------------------------|------------------------|
|------------------------|------------------------|
|------------------------|------------------------|
| Gtr III
|-^-0--------------------|-(0)----------^-0--^-0--|
|-^-0--------------------|-(0)----------^-0--^-0--|
|-^-4--------------------|-(4)----------^-4--^-2--|
|-^-5--------------------|-(5)----------^-5--^-3--|
|-^-5--------------------|-(5)----------^-5--^-3--|
|-^-3--------------------|-(3)----------^-3--^-1--|


|-----------------|--------------------|
|-----------------|--------------------|
|-----------------|--------------------|
|-^9----9-----9---|-----9-----^9--^10--|
|-^7------7-----7-|-------7---^7--^-8--|
|-^7--7-----7-----|--7------7-^7--^-8--|
|
|-^0----0-----0---|-----0-----^0--^-0--|
|-^0------0-----0-|-------0---^0--^-0--|
|-^1--1-----1-----|--1------1-^1--^-2--|
|-----------------|--------------------|
|-----------------|--------------------|
|-----------------|--------------------|
|
|-^0--------------|-(0)-------^0--^-0--|
|-^0--------------|-(0)-------^0--^-0--|
|-^1--------------|-(1)-------^1--^-2--|
|-^2--------------|-(2)-------^2--^-3--|
|-^2--------------|-(2)-------^2--^-3--|
|-^0--------------|-(0)-------^0--^-1--|


|------------------------|------------------------|
|------------------------|------------------------|
|-^12-----12-------12----|-----12-------^12--^10--|
|-^12--------12-------12-|--------12----^12--^10--|
|-^10--10-------10-------|-10--------10-^10--^-8--|
|-^10--------------------|--------------^10--^-8--|
|
|-^-0------0--------0----|------0-------^-0--^-0--|
|-^-0---------0--------0-|---------0----^-0--^-0--|
|-^-4---4--------4-------|--4---------4-^-4--^-2--|
|------------------------|------------------------|
|------------------------|------------------------|
|------------------------|------------------------|
|
|-^-0--------------------|-(0)----------^-0--^-0--|
|-^-0--------------------|-(0)----------^-0--^-0--|
|-^-4--------------------|-(4)----------^-4--^-2--|
|-^-5--------------------|-(5)----------^-5--^-3--|
|-^-5--------------------|-(5)----------^-5--^-3--|
|-^-3--------------------|-(3)----------^-3--^-1--|


|-----------------|--------------------|
|-----------------|--------------------|
|-^9----9-----9---|-----9-----^9--^10--|
|-^9------9-----9-|-------9---^9--^10--|
|-^7--7-----7-----|--7------7-^7--^-8--|
|-^7--------------|-----------^7--^-8--|
|
|-^0----0-----0---|-----0-----^0--^-0--|
|-^0------0-----0-|-------0---^0--^-0--|
|-^1--1-----1-----|--1------1-^1--^-2--|
|-----------------|--------------------|
|-----------------|--------------------|
|-----------------|--------------------|
|
|-^0--------------|-(0)-------^0--^-0--|
|-^0--------------|-(0)-------^0--^-0--|
|-^1--------------|-(1)-------^1--^-2--|
|-^2--------------|-(2)-------^2--^-3--|
|-^2--------------|-(2)-------^2--^-3--|
|-^0--------------|-(0)-------^0--^-1--|


|------------------------|------------------------|
|-^12-----12-------12----|-----12-------^12--^10--|
|-^12--------12-------12-|--------12----^12--^10--|
|-^12--12-------12-------|-12--------12-^12--^10--|
|-^10--------------------|--------------^10--^-8--|
|-^10--------------------|--------------^10--^-8--|
|
|-^-0------0--------0----|------0-------^-0--^-0--|
|-^-0---------0--------0-|---------0----^-0--^-0--|
|-^-4---4--------4-------|--4---------4-^-4--^-2--|
|------------------------|------------------------|
|------------------------|------------------------|
|------------------------|------------------------|
|
|-^-0--------------------|-(0)----------^-0--^-0--|
|-^-0--------------------|-(0)----------^-0--^-0--|
|-^-4--------------------|-(4)----------^-4--^-2--|
|-^-5--------------------|-(5)----------^-5--^-3--|
|-^-5--------------------|-(5)----------^-5--^-3--|
|-^-3--------------------|-(3)----------^-3--^-1--|


|-----------------|--------------------|
|-^9----9-----9---|-----9-----^9--^10--|
|-^9------9-----9-|-------9---^9--^10--|
|-^9--9-----9-----|--9------9-^9--^10--|
|-^7--------------|-----------^7--^-8--|
|-^7--------------|-----------^7--^-8--|
|
|-^0----0-----0---|-----0-----^0--^-0--|
|-^0------0-----0-|-------0---^0--^-0--|
|-^1--1-----1-----|--1------1-^1--^-2--|
|-----------------|--------------------|
|-----------------|--------------------|
|-----------------|--------------------|
|
|-^0--------------|-(0)-------^0--^-0--|
|-^0--------------|-(0)-------^0--^-0--|
|-^1--------------|-(1)-------^1--^-2--|
|-^2--------------|-(2)-------^2--^-3--|
|-^2--------------|-(2)-------^2--^-3--|
|-^0--------------|-(0)-------^0--^-1--|


|------------------------|------------------------|
|------------------------|------------------------|
|-^12--------------------|--------------^12--^10--|
|-^12-----12-------12----|-----12-------^12--^10--|
|-^10--------10-------10-|--------10----^10--^-8--|
|-^10--10-------10-------|-10--------10-^10--^-8--|
|
|-^-0------0--------0----|------0-------^-0--^-0--|
|-^-0---------0--------0-|---------0----^-0--^-0--|
|-^-4---4--------4-------|--4---------4-^-4--^-2--|
|------------------------|------------------------|
|------------------------|------------------------|
|------------------------|------------------------|
|
|-^-0--------------------|-(0)----------^-0--^-0--|
|-^-0--------------------|-(0)----------^-0--^-0--|
|-^-4--------------------|-(4)----------^-4--^-2--|
|-^-5--------------------|-(5)----------^-5--^-3--|
|-^-5--------------------|-(5)----------^-5--^-3--|
|-^-3--------------------|-(3)----------^-3--^-1--|


                              Gtr II
|-----------------|-----------12--13--|
|-----------------|-------------------|
|-^9--------------|-------------------|
|-^9----9-----9---|-----9-------------|
|-^7------7-----7-|-------7-----------|
|-^7--7-----7-----|--7------7---------|
|
|                             Gtr I
|-^0----0-----0---|-----0-------------|
|-^0------0-----0-|-------0-----------|
|-^1--1-----1-----|--1------1--9--10--|
|-----------------|------------9--10--|
|-----------------|------------7---8--|
|-----------------|-------------------|
|
|-^0--------------|-(0)-------^0--^0--|
|-^0--------------|-(0)-------^0--^0--|
|-^1--------------|-(1)-------^1--^2--|
|-^2--------------|-(2)-------^2--^3--|
|-^2--------------|-(2)-------^2--^3--|
|-^0--------------|-(0)-------^0--^1--|


    Gtr II
     ~~~~~~~~~~~~~~~~~~~~~~~
||--15---------------|-(15)-----15--13--|
||o------------------|------------------|
||-------------------|------------------|
||-------------------|------------------|
||o------------------|------------------|
||-------------------|------------------|
|   Gtr I
||-------------------|------------------|
||o------------------|------------------|
||--12---------------|-(12)-----12--10--|
||--12---------------|-(12)-----12--10--|
||o-10---------------|-(10)-----10---8--|
||-------------------|------------------|
|   Gtr III
||--^0-------(0)-0-0-|---0---0---0---0--|
||o-^0-------(0)-0-0-|---0---0---0---0--|
||--^4-------(4)-4-4-|---4---4---4---2--|
||--^5-------(5)-5-5-|---5---5---5---3--|
||o-^5-------(5)-5-5-|---5---5---5---3--|
||--^3-------(3)-3-3-|---3---3---3---1--|


   ~~~~~~~~~~~~~~~~~~~~~~~
                                        4x
|-12---------------|-(12)-----12--13----||
|------------------|-------------------o||
|------------------|--------------------||
|------------------|--------------------||
|------------------|-------------------o||
|------------------|--------------------||
|
|------------------|--------------------||
|------------------|-------------------o||
|--9---------------|--(9)------9--10----||
|--9---------------|--(9)------9--10----||
|--7---------------|--(7)------7---8---o||
|------------------|--------------------||
|
|-^0-------(0)-0-0-|---0---0---0---0----||
|-^0-------(0)-0-0-|---0---0---0---0---o||
|-^1-------(1)-1-1-|---1---1---1---2----||
|-^2-------(2)-2-2-|---2---2---2---3----||
|-^2-------(2)-2-2-|---2---2---2---3---o||
|-^0-------(0)-0-0-|---0---0---0---1----||


    Gtr I
||---------------------|-------------------|
||o--------------------|-------------------|
||--12--x-12-x-12-x-12-|-x-12-x-12-12--10--|
||--12--x-12-x-12-x-12-|-x-12-x-12-12--10--|
||o-10--x-10-x-10-x-10-|-x-10-x-10-10---8--|
||---------------------|-------------------|
|   Gtr III
|    Q  E  E E  E E  E   E  E E  E  Q   Q
||---0--0--0-0--0-0--0-|-0--0-0--0--0---0--|
||o--0--0--0-0--0-0--0-|-0--0-0--0--0---0--|
||---4--4--4-4--4-4--4-|-4--4-4--4--4---2--|
||---5--5--5-5--5-5--5-|-5--5-5--5--5---3--|
||o--5--5--5-5--5-5--5-|-5--5-5--5--5---3--|
||---3--3--3-3--3-3--3-|-3--3-3--3--3---1--|


 1.,2.,3.
                                    4x
|----------------|------------------||
|----------------|-----------------o||
|-9--x-9-x-9-x-9-|-x-9-x-9-9--10----||
|-9--x-9-x-9-x-9-|-x-9-x-9-9--10----||
|-7--x-7-x-7-x-7-|-x-7-x-7-7---8---o||
|----------------|------------------||
|
|-0--0-0-0-0-0-0-|-0-0-0-0-0---0----||
|-0--0-0-0-0-0-0-|-0-0-0-0-0---0---o||
|-1--1-1-1-1-1-1-|-1-1-1-1-1---2----||
|-2--2-2-2-2-2-2-|-2-2-2-2-2---3----||
|-2--2-2-2-2-2-2-|-2-2-2-2-2---3---o||
|-0--0-0-0-0-0-0-|-0-0-0-0-0---1----||


  4.
|-----------------|------------------|-----------------|-----------------|
|-----------------|------------------|-----------------|-----------------|
|-8-------(8)-8-8-|--8-------(8)-8-8-|-8-------(8)-8-8-|-8-------(8)-8-8-|
|-9-------(9)-9-9-|--9-------(9)-9-9-|-9-------(9)-9-9-|-9-------(9)-9-9-|
|-9-------(9)-9-9-|--9-------(9)-9-9-|-9-------(9)-9-9-|-9-------(9)-9-9-|
|-7-------(7)-7-7-|--7-------(7)-7-7-|-7-------(7)-7-7-|-7-------(7)-7-7-|
|
|-2---------------|-(2)--------------|-----------------|-----------------|
|-4---------------|-(4)--------------|-----------------|-----------------|
|-4---------------|-(4)--------------|-----------------|-----------------|
|-4---------------|-(4)--------------|-----------------|-----------------|
|-2---------------|-(2)--------------|-----------------|-----------------|
|-2---------------|-(2)--------------|-----------------|-----------------|


  Gtr I
|-------------------|-------------------|-----------------|-----------------||
|-------------------|-------------------|-----------------|-----------------||
|-8--x-8-8-8--x-8-8-|-8--x-8-8-8--x-8-8-|-8-x-8-x-8-x-8-x-|-8-x-8-x-8-x-8-x-||
|-9--x-9-9-9--x-9-9-|-9--x-9-9-9--x-9-9-|-9-x-9-x-9-x-9-x-|-9-x-9-x-9-x-9-x-||
|-9--x-9-9-9--x-9-9-|-9--x-9-9-9--x-9-9-|-9-x-9-x-9-x-9-x-|-9-x-9-x-9-x-9-x-||
|-7--x-7-7-7--x-7-7-|-7--x-7-7-7--x-7-7-|-7-x-7-x-7-x-7-x-|-7-x-7-x-7-x-7-x-||


 Guitar Solo
| Gtr I
|     PM--------|       PM--------|       PM|      PM|       PM--------|
|-----------------|-----------------|------------------|-----------------|
|-----------------|-----------------|------------------|-----------------|
|-7s9-------------|-7s9-------------|-7s9-----12s9-----|-7s9-------------|
|-7s9-------------|-7s9-------------|-7s9-----12s9-----|-7s9-------------|
|-5s7-------------|-5s7-------------|-5s7-----10s7-----|-5s7-------------|
|-----0-0-0-0-0-0-|-----0-0-0-0-0-0-|-----0-0------0-0-|-----0-0-0-0-0-0-|


|     PM--------|       PM--------|       PM|      PM|       PM|
|-----------------|-----------------|------------------|-----------------|
|-----------------|-----------------|------------------|-----------------|
|-7s9-------------|-7s9-------------|-7s9-----12s9-----|-7s9-----9-9-9-0-|
|-7s9-------------|-7s9-------------|-7s9-----12s9-----|-7s9-----9-9-9-0-|
|-5s7-------------|-5s7-------------|-5s7-----10s7-----|-5s7-----7-7-7-0-|
|-----0-0-0-0-0-0-|-----0-0-0-0-0-0-|-----0-0------0-0-|-----0-0-0-0-0-0-|


|-----------|----------------|-----------|----------------|
|-----------|----------------|-----------|----------------|
|-----------|----------------|-----------|----------------|
|-7----7----|-7--7-0---------|-7----7----|-7--7-0---------|
|-7----7----|-7--7-0-3p0-4p0-|-7----7----|-7--7-0-5p0-5p0-|
|-5----5----|-5--5-0-3p0-4p0-|-5----5----|-5--5-0-5p0-5p0-|


|     PM--------|       PM--------|       PM|      PM|       PM|
|-----------------|-----------------|------------------|-----------------|
|-----------------|-----------------|------------------|-----------------|
|-7s9-------------|-7s9-------------|-7s9-----12s9-----|-7s9-----9-9-9-0-|
|-7s9-------------|-7s9-------------|-7s9-----12s9-----|-7s9-----9-9-9-0-|
|-5s7-------------|-5s7-------------|-5s7-----10s7-----|-5s7-----7-7-7-0-|
|-----0-0-0-0-0-0-|-----0-0-0-0-0-0-|-----0-0------0-0-|-----0-0-0-0-0-0-|


|-----------|----------------|-----------|----------------|
|-----------|----------------|-----------|----------------|
|-----------|----------------|-----------|----------------|
|-7----7----|-7--7-0---------|-7----7----|-7--7-0---------|
|-7----7----|-7--7-0-3p0-4p0-|-7----7----|-7--7-0-5p0-5p0-|
|-5----5----|-5--5-0-3p0-4p0-|-5----5----|-5--5-0-5p0-5p0-|


|     PM--------|       PM--------|       PM|      PM|       PM|
|-----------------|-----------------|------------------|-----------------||
|-----------------|-----------------|------------------|-----------------||
|-7s9-------------|-7s9-------------|-7s9-----12s9-----|-7s9-----9-9-9-0-||
|-7s9-------------|-7s9-------------|-7s9-----12s9-----|-7s9-----9-9-9-0-||
|-5s7-------------|-5s7-------------|-5s7-----10s7-----|-5s7-----7-7-7-0-||
|-----0-0-0-0-0-0-|-----0-0-0-0-0-0-|-----0-0------0-0-|-----0-0-0-0-0-0-||


 Chorus II
  Gtr I
|-----------------|-----------------|-----------------|-----------------|
|-----------------|-----------------|-----------------|-----------------|
|-4-4-4-0-7-7-7-0-|-9-9-9-9-9-9-9-0-|-4-4-4-0-7-7-7-7-|-7-7-7-7-7-7-7-7-|
|-5-5-5-0-7-7-7-0-|-9-9-9-9-9-9-9-0-|-5-5-5-0-7-7-7-7-|-7-7-7-7-7-7-7-7-|
|-5-5-5-0-5-5-5-0-|-7-7-7-7-7-7-7-0-|-5-5-5-0-5-5-5-5-|-5-5-5-5-5-5-5-5-|
|-3-3-3---5-5-5---|-7-7-7-7-7-7-7---|-3-3-3---5-5-5-5-|-5-5-5-5-5-5-5-5-|


|     PM--------|       PM--------|       PM|      PM|       PM--------|
|-----------------|-----------------|------------------|-----------------|
|-----------------|-----------------|------------------|-----------------|
|-7s9-------------|-7s9-------------|-7s9-----12s9-----|-7s9-------------|
|-7s9-------------|-7s9-------------|-7s9-----12s9-----|-7s9-------------|
|-5s7-------------|-5s7-------------|-5s7-----10s7-----|-5s7-------------|
|-----0-0-0-0-0-0-|-----0-0-0-0-0-0-|-----0-0------0-0-|-----0-0-0-0-0-0-|


      PM--------|       PM--------|       PM|      PM|       PM|
|-----------------|-----------------|------------------|-----------------||
|-----------------|-----------------|------------------|-----------------||
|-7s9-------------|-7s9-------------|-7s9-----12s9-----|-7s9-----9-9-9-0-||
|-7s9-------------|-7s9-------------|-7s9-----12s9-----|-7s9-----9-9-9-0-||
|-5s7-------------|-5s7-------------|-5s7-----10s7-----|-5s7-----7-7-7-0-||
|-----0-0-0-0-0-0-|-----0-0-0-0-0-0-|-----0-0------0-0-|-----0-0-0-0-0-0-||


 Out-Chorus
|     PM--------|       PM--------|       PM|      PM|       PM--------|    3x
||------------------|-----------------|------------------|------------------||
||o-----------------|-----------------|------------------|-----------------o||
||--7s9-------------|-7s9-------------|-7s9-----12s9-----|-7s9--------------||
||--7s9-------------|-7s9-------------|-7s9-----12s9-----|-7s9--------------||
||o-5s7-------------|-5s7-------------|-5s7-----10s7-----|-5s7-------------o||
||------0-0-0-0-0-0-|-----0-0-0-0-0-0-|-----0-0------0-0-|-----0-0-0-0-0-0--||


|     PM--------|       PM--------|       PM|      PM|       PM|
|-----------------|-----------------|------------------|-----------------||
|-----------------|-----------------|------------------|-----------------||
|-7s9-------------|-7s9-------------|-7s9-----12s9-----|-7s9-----9-9-9-0-||
|-7s9-------------|-7s9-------------|-7s9-----12s9-----|-7s9-----9-9-9-0-||
|-5s7-------------|-5s7-------------|-5s7-----10s7-----|-5s7-----7-7-7-0-||
|-----0-0-0-0-0-0-|-----0-0-0-0-0-0-|-----0-0------0-0-|-----0-0-0-0-0-0-||


 Outro
|-----------|-3--3-3-3-3-3-3-|-3-3-3-3-3-3-3-0-|---------------|
|-----------|-3--3-3-3-3-3-3-|-3-3-3-3-3-3-3-0-|---------------|
|-9----7----|-4--4-4-4-4-4-4-|-4-4-4-4-4-4-4-0-|-7-9----7-9----|
|-9----7----|-5--5-5-5-5-5-5-|-5-5-5-5-5-5-5-0-|-7-9----7-9----|
|-7----5----|-5--5-5-5-5-5-5-|-5-5-5-5-5-5-5---|-5-7----5-7----|
|-7----5----|-3--3-3-3-3-3-3-|-3-3-3-3-3-3-3---|-5-7----5-7----|


|-------------|------------|------------|---------------*|
|-------------|------------|------------|---------------*|
|-7-9----9----|-(9)--------|-(9)--------|-(9)----9\-----*|
|-7-9----9----|-(9)--------|-(9)--------|-(9)----9\-----*|
|-5-7----7----|-(7)--------|-(7)--------|-(7)----7\-----*|
|-5-7----0----|-(0)--------|-(0)--------|-(0)-----------*|
Добавлено: 07.06.2016
Другие материалы по этой песне:
  • Аккорды и текст

Страница создана 07.06.2016
http://primanota.ru/dust/love-me-hard-chords.htm
Привет, Гость.
Предлагаем пройти революционный курс по гитаре.
Подарок от PrimaNota.Ru, забирай!