PrimaNota.ru - самый крупный в мире бесплатный архив песенных текстов, аккордов, табулатур и нот


Dust - Loose Goose - таба, видео

Регистрация Запомнить меня
Войти через:  Facebook Google Twitter Vk Yandex Mail.ru

Dust - Loose Goose - таба, видео

Печатать
Просмотров: 33
Loose Goose
by Dust

   Intro
    Gtr I
     E     +E   E     +E   E     +E   +E   S     +S   S     +S   S     +S   3x
||--------------------------------------------------------------------------||
||o--9-----(9)--9-----(9)--9-----(9)--(9)--9-----(9)--9-----(9)--9-----(9)-o||
||--11b13-(11)-11b13-(11)-11b13-(11)-(11)-11b13-(11)-11b13-(11)-11b13-(11)--||
||--------------------------------------------------------------------------||
||o------------------------------------------------------------------------o||
||--------------------------------------------------------------------------||


   |----3----|  |----3----|  |----3----|
   E     +E  E  E     +E  E  E     +E  E  S     +S   S     +S   S     +S   S     +S
|-------------------------------------------------------------------------------------||
|--9-----(9)-9--9-----(9)-9--9-----(9)-9--9-----(9)--9-----(9)--9-----(9)--9-----(9)--||
|-11b13-(11)---11b13-(11)---11b13-(11)---11b13-(11)-11b13-(11)-11b13-(11)-11b13-(11)--||
|-------------------------------------------------------------------------------------||
|-------------------------------------------------------------------------------------||
|-------------------------------------------------------------------------------------||


   Main Theme
                                          To Dbl. Coda
                                                         4x
||----------------------------|--------------------------||
||o---------------------------|-------------------------o||
||----------------------------|--------------------------||
||----------------------------|--------------------------||
||o-------4-4h5-5p4-5p4-4-4-5p|=4-4-4-5p4-4-5-(5)-------o||
||--0-4-7---------------------|-------------------7-4-4--||


   Interlude
||--------------------|--------------------||
||o-------------------|-------------------o||
||--------------------|--------------------||
||--------------------|--------------------||
||o-------------------|-------------------o||
||--0----0--0-0-4-5-7-|-0----0--0-0-4-5-7--||


||------------------------|------------------------||
||o-----------------------|-----------------------o||
||------9-x-9-x-x-x-9-9-9-|-----9-x-9-x-x-x-9-9-9--||
||------6-x-6-x-x-x-6-6-6-|-----6-x-6-x-x-x-6-6-6--||
||o-----7-x-7-x-x-x-7-7-7-|-----7-x-7-x-x-x-7-7-7-o||
||--0-0-0-x-0-x-x-x-0-0-0-|-0-0-0-x-0-x-x-x-0-0-0--||


   Main Theme II
    $
    $$
                                                          4x
||----------------------------|---------------------------||
||o---------------------------|--------------------------o||
||----------------------------|---------------------------||
||----------------------------|---------------------------||
||o-------4-4h5-5p4-5p4-4-4-5p|=4-4-4-5p4-4-5-(5)--------o||
||--0-4-7---------------------|-------------------7-4-4---||


                                 D.S.
||------------------|------------------||
||o----------9--9\--|----------9--9\--o||
||-----------9--9\--|----------9--9\---||
||-----------9--9\--|----------9--9\---||
||o-------4/-7--7\--|-------4/-7--7\--o||
||--0-4-7----0--0---|-0-4-7----0--0----||


 Bridge
|------------------|------------------|
|-7----(7)\-9----9S|=7----(7)\-9----9S|
|-7----(7)\-9----9S|=7----(7)\-9----9S|
|-7----(7)\-9----9S|=7----(7)\-9----9S|
|-5----(5)\-7----7S|=5----(5)\-7----7S|
|------------------|------------------|


|--------------------|---------------------|
|-12----(12)\-9----9S|=12----(12)\-9----9--|
|-12----(12)\-9----9S|=12----(12)\-9----9S=|
|-12----(12)\-9----9S|=12----(12)\-9----9S=|
|-10----(10)\-7----7S|=10----(10)\-7----7S=|
|--------------------|---------------------|


|--------------------|--------------------|
|-14----(14)\-9----9S|=12----(12)\-9----9S|
|-14----(14)\-9----9S|=12----(12)\-9----9S|
|-14----(14)\-9----9S|=12----(12)\-9----9S|
|-12----(12)\-7----7S|=10----(10)\-7----7S|
|--------------------|--------------------|


                             To Coda
|------------------|-------------------||
|-7----(7)\-9----9S|=7----(7)\-9----9S=||
|-7----(7)\-9----9S|=7----(7)\-9----9S=||
|-7----(7)\-9----9S|=7----(7)\-9----9S=||
|-5----(5)\-7----7S|=5----(5)\-7----7S=||
|------------------|-------------------||


 Guitar Solo
                                                            ~
|-----------------|-------------------------------------------|----------------|
|-----------------|-------------------------------------------|-5--7--9--(9)\--|
|---------7-------|-7-7---------------------------------------|-5--7--9--(9)\--|
|-7-------7-------|-7-7-9-9-7-7-9-9b11==(9)-(9)pb11r(9)p7-9-7-|-5--7--9--(9)\--|
|---9-7-9---9-7-9-|-----9-9-7-7-9-----------------------------|-3--5--7--(7)\--|
|-----------------|-------------------------------------------|-3--5--7--(7)\--|


|-12----(12)-12-12----(12)-12-12----(12)-12-12----(12)-12-----------------|
|-15b17-(15)----15b17-(15)----15b17-(15)----15b17-(15)----15p12-----------|
|---------------------------------------------------------------14-12-----|
|---------------------------------------------------------------------14\-|
|-------------------------------------------------------------------------|
|-------------------------------------------------------------------------|

|----------------|---------------------------------------------------------------------------------|
|-5--7--9--(9)\--|-12----(12)-12-12----(12)-12-12----(12)-12-12----(12)-12-12----(12)--------------|
|-5--7--9--(9)\--|-14b16-(14)----14b16-(14)----14b16-(14)----14b16-(14)----14b16-(14)-14-12-14-12\-|
|-5--7--9--(9)\--|---------------------------------------------------------------------------------|
|-3--5--7--(7)\--|---------------------------------------------------------------------------------|
|-3--5--7--(7)\--|---------------------------------------------------------------------------------|


|----------------|----------12----------------12---------------------------|
|-5--7--9--(9)\--|-------12----15p12----12----12-15p12---------------------|
|-5--7--9--(9)\--|-14b16-------------14-14b16----------14p12---------------|
|-5--7--9--(9)\--|-------------------------------------------14p12---------|
|-3--5--7--(7)\--|-------------------------------------------------14-12\--|
|-3--5--7--(7)\--|---------------------------------------------------------|


                                                    D.S.S. al Coda
|----------------|--------------------------------------9------------||
|-5--7--9--(9)\--|------------------------------------9---12p9-------||
|-5--7--9--(9)\--|------9-(9)----9-(9)----9-(9)-11b13----------11-9\-||
|-5--7--9--(9)\--|-9s11-------11-------11----------------------------||
|-3--5--7--(7)\--|---------------------------------------------------||
|-3--5--7--(7)\--|---------------------------------------------------||


 Bass Solo
  &
|-----------------|-------------------------------------------|
|-----------------|-------------------------------------------|
|---------7-------|-7-7---------------------------------------|
|-7-------7-------|-7-7-9-9-7-7-9-9b11==(9)-(9)pb11r(9)p7-9-7-|
|---9-7-9---9-7-9-|-----9-9-7-7-9-----------------------------|
|-----------------|-------------------------------------------|


      D.C. al Dbl. Coda
                            4x
||-----------------|--------||
||o-5--7--9--(9)\--|-------o||
||--5--7--9--(9)\--|--------||
||--5--7--9--(9)\--|--------||
||o-3--5--7--(7)\--|-------o||
||--3--5--7--(7)\--|--------||


 Outro
  &&
|----------------|------------------------|
|-5------7-------|--8-------10-----13-----|
|-7b9----9b11----|-10b12----12b14--15b17--|
|----------------|------------------------|
|----------------|------------------------|
|----------------|------------------------|


|-12----12----12-----12----12----12-----|-12----12----12-----12----12----12-----|
|-15b17-15b17-15b17--15b17-15b17-15b17--|-15b17-15b17-15b17--15b17-15b17-15b17--|
|---------------------------------------|---------------------------------------|
|---------------------------------------|---------------------------------------|
|---------------------------------------|---------------------------------------|
|---------------------------------------|---------------------------------------|


|-------------------------------------|-------------------------------------|
|-------12-------12-------12-------12-|-------12-------12-------12-------12-|
|-14b16----14b16----14b16----14b16----|-14b16----14b16----14b16----14b16----|
|-------------------------------------|-------------------------------------|
|-------------------------------------|-------------------------------------|
|-------------------------------------|-------------------------------------|


                                    |--3--|    |--3--|  |--3--|
|-------------------------------------------|-----------------------------------------||
|-------------------------------12----------|-------------------12b14-----------------||
|-14-13-14-13-14-13-14-13-14b16----14p13----|-14p13----14p13----------14-13-14-13-----||
|----------------------------------------14-|-------14-------14-------------------14\-||
|-------------------------------------------|-----------------------------------------||
|-------------------------------------------|-----------------------------------------||


                                                          4x
||----------------------------|---------------------------||
||o---------------------------|--------------------------o||
||----------------------------|---------------------------||
||----------------------------|---------------------------||
||o-------4-4h5-5p4-5p4-4-4-5p|=4-4-4-5p4-4-5-(5)--------o||
||--0-4-7---------------------|-------------------7-4-4---||



|--------------------|--------------|----------|--------------*|
|----------9--9\-----|-9--9\-----9--|-9--------|-(9)------9\--*|
|----------9--9\-----|-9--9\-----9--|-9--------|-(9)------9\--*|
|----------9--9\-----|-9--9\-----9--|-9--------|-(9)------9\--*|
|-------4/-7--7\-----|-7--7\-----7--|-7--------|-(7)------7\--*|
|-0-4-7----0--0------|-0--0------0--|-0--------|-(0)------0---*|
Добавлено: 07.06.2016
Другие материалы по этой песне:
  • Аккорды и текст

Страница создана 07.06.2016
http://primanota.ru/dust/loose-goose-chords.htm
Привет, Гость.
Предлагаем пройти революционный курс по гитаре.
Подарок от PrimaNota.Ru, забирай!