PrimaNota.ru - самый крупный в мире бесплатный архив песенных текстов, аккордов, табулатур и нот


Dust - From A Dry Camel - таба, видео

Регистрация Запомнить меня
Войти через:  Facebook Google Twitter Vk Yandex Mail.ru

Dust - From A Dry Camel - таба, видео

Печатать
Просмотров: 52
From A Dry Camel
by Dust

   Intro
    Gtr I
    ~~     ~~       ~~     ~~         ~~     ~~       ~~     ~~
    Q.   E Q.   E   Q.   E Q.   E     Q.   E Q.   E   Q.   E Q.   E
||----------------|----------------||---------------|---------------|
||o---------------|---------------o||---------------|---------------|
||--9----9S5----5S|=7----7S4----4S=||=9----9S5----5S|=7----7S4----4-|
||----------------|----------------||---------------|---------------|
||o---------------|---------------o||---------------|---------------|
||----------------|----------------||---------------|---------------|


  Gtr II
                                                       |---3---|
|-------------------------------|--------------------------------|
|-------------------------------|--------------------------------|
|-------------------------------|--------------------------------|
|-------------------------------|-------------------9s12-(12)-12-|
|-------------------------------|--------------------------------|
|-------------------------------|--------------------------------|
| Gtr I
|                                 |-3-| |-3-| |-3-|    |---3---|
|-------------------------------|--------------------------------|
|-------------------------------|--------------------------------|
|-4s5-(5)-(5)-5s4---------------|--------------------------------|
|-----------------4s5-(5)-(5)-5S|=9-9-9-9-9-9-9-9-9----9---9---9-|
|-------------------------------|--------------------------------|
|-------------------------------|--------------------------------|


   |-----3-----|     |-----3-----|     |-----3------|   |-------3--------|
|--------------------------------------------------------------------------||
|--------------------------------------------------------------------------||
|-14b16-14b16-14b16-14b16-14b16-14b16-14b16==(14)r(14)-14b16==(14)r(14)p12-||
|--------------------------------------------------------------------------||
|--------------------------------------------------------------------------||
|--------------------------------------------------------------------------||
|
|  |-----3-----|     |-----3-----|     |-----3------|   |-----3------|
|--------------------------------------------------------------------------||
|--------------------------------------------------------------------------||
|--------------------------------------------------------------------------||
|--9-----9-----9-----9-----9-----9-----9-------9----9---9-------9----9-----||
|--------------------------------------------------------------------------||
|--------------------------------------------------------------------------||


|-------------------|----------|--------------------|------||
|-------------------|----------|--------------------|------||
|-------------------|----------|-9-9-(9)\--5--(5)\--|------||
|-14-14-(14)\-------|----------|-9-9-(9)\--5--(5)\--|------||
|-------------------|----------|-7-7-(7)\--3--(3)\--|------||
|-------------------|----------|--------------------|------||
|
|-------------------|----------|--------------------|------||
|-------------------|----------|--------------------|------||
|--9--9--(9)\-------|----------|-9-9-(9)\--5--(5)\--|------||
|-------------------|----------|--------------------|------||
|-------------------|----------|--------------------|------||
|-------------------|----------|--------------------|------||


 Verse I
  $
  Gtr I
  8 bar rest
|--------|
|--------|
|--------|
|--------|
|--------|
|--------|
                                                            D.C.
                                                            D.C.
    ~~     ~~       ~~     ~~       ~~     ~~       ~~     ~~
||----------------|---------------|---------------|------------------||
||o---------------|---------------|---------------|-----------------o||
||--9----9S5----5S|=7----7S4----4S|=9----9S5----5S|=7----7S4----4S===||
||----------------|---------------|---------------|------------------||
||o---------------|---------------|---------------|-----------------o||
||----------------|---------------|---------------|------------------||


   Re-Intro
                                                         |-3-|
||----------------|----------------||---------------|-----------------|
||o---------------|---------------o||---------------|-----------------|
||--9----9S5----5S|=7----7S4----4S=||=9----9S5----5S|=7--7s9s7S4----4-|
||----------------|----------------||---------------|-----------------|
||o---------------|---------------o||---------------|-----------------|
||----------------|----------------||---------------|-----------------|


                                 2/4
                                  |-3-| |-3-|
|-------------------------------|--------------||
|-------------------------------|--------------||
|-4s5-(5)-(5)-5s4---------------|--------------||
|-----------------4s5-(5)-(5)-5S|=9-9-9-9-9-9\-||
|-------------------------------|--------------||
|-------------------------------|--------------||


   Interlude
    Gtr II                                                    4x
||-------------|------------|------------|--------------------||
||o------------|------------|------------|-------------------o||
||--9--x-9-x-9-|-9--x-9-x-9-|-9--x-9-x-9-|-9s10--9s10--9s10---||
||-----x---x---|----x---x---|----x---x---|--------------------||
||o-7--x-7-x-7-|-7--x-7-x-7-|-7--x-7-x-7-|-7s=8--7s=8--7s=8--o||
||--0--x-0-x-0-|-0--x-0-x-0-|-0--x-0-x-0-|-0-(0)-0-(0)-0-(0)--||
|
|   Gtr III
||--0--x-0-x-0-|-0--x-0-x-0-|-0--x-0-x-0-|-0--0--0--0--0--0---||
||o-0--x-0-x-0-|-0--x-0-x-0-|-0--x-0-x-0-|-0--0--0--0--0--0--o||
||--1--x-1-x-1-|-1--x-1-x-1-|-1--x-1-x-1-|-1s=2--2--2--2--2s==||
||--2--x-2-x-2-|-2--x-2-x-2-|-2--x-2-x-2-|-2s=3--3--3--3--3s==||
||o-2--x-2-x-2-|-2--x-2-x-2-|-2--x-2-x-2-|-2s=3--3--3--3--3s=o||
||--0--x-0-x-0-|-0--x-0-x-0-|-0--x-0-x-0-|-0--0--0--0--0--0---||


|-------------|--------------|--------------|----------------------|
|-------------|--------------|--------------|----------------------|
|-9-----------|-(9)----------|-9------(9)-9-|-9s10--10---10----10s=|
|-------------|--------------|--------------|----------------------|
|-7-----------|-(7)----------|-7------(7)-7-|-7s=8---8----8-----8s=|
|-0-----------|-(0)----------|-0------(0)-0-|-0-(0)----------------|
|
|-0---x-0-x-0-|--0---x-0-x-0-|-0--x-0--x--0-|-0--0---0-0--0--0-----|
|-0---x-0-x-0-|--0---x-0-x-0-|-0--x-0--x--0-|-0--0---0-0--0--0-----|
|-1---x-1-x-1-|--1---x-1-x-1-|-1--x-1--x--1-|-1s=2---2-2--2--2-----|
|-2---x-2-x-2-|--2---x-2-x-2-|-2--x-2--x--2-|-2s=3---3-3--3--3-----|
|-2---x-2-x-2-|--2---x-2-x-2-|-2--x-2--x--2-|-2s=3---3-3--3--3-----|
|-0---x-0-x-0-|--0---x-0-x-0-|-0--x-0--x--0-|-0--0---0-0--0--0-----|


    Gtr I
||--10s12-----------|-(12)----------|
||o-----------------|---------------|
||------------------|---------------|
||------------------|---------------|
||o-----------------|---------------|
||------------------|---------------|
|
|      Gtr II
||------------------|---------------|
||o-----------------|---------------|
||------9-----------|--(9)----------|
||------------------|---------------|
||o-----7-----------|--(7)----------|
||------0-----------|--(0)----------|
|
|      Gtr III
||------0---x-0-x-0-|---0---x-0-x-0-|
||o-----0---x-0-x-0-|---0---x-0-x-0-|
||------1---x-1-x-1-|---1---x-1-x-1-|
||------2---x-2-x-2-|---2---x-2-x-2-|
||o-----2---x-2-x-2-|---2---x-2-x-2-|
||------0---x-0-x-0-|---0---x-0-x-0-|


                                             3x
|-(12)------(12)-12-|-12s13--13---13----13\--||
|-------------------|-----------------------o||
|-------------------|------------------------||
|-------------------|------------------------||
|-------------------|-----------------------o||
|-------------------|------------------------||
|
|-------------------|------------------------||
|-------------------|-----------------------o||
|--(9)-------(9)--9-|--9s10--10---10----10---||
|-------------------|------------------------||
|--(7)-------(7)--7-|--7s=8---8----8-----8--o||
|--(0)-------(0)--0-|--0-(0)-----------------||
|
|---0---x-0---x---0-|--0--0---0-0--0--0------||
|---0---x-0---x---0-|--0--0---0-0--0--0-----o||
|---1---x-1---x---1-|--1s=2---2-2--2--2------||
|---2---x-2---x---2-|--2s=3---3-3--3--3------||
|---2---x-2---x---2-|--2s=3---3-3--3--3-----o||
|---0---x-0---x---0-|--0--0---0-0--0--0------||



||--13s16-----16------|-16-----16------|
||o-------------------|----------------|
||--------------------|----------------|
||--------------------|----------------|
||o-------------------|----------------|
||--------------------|----------------|
|
||--------------------|----------------|
||o-------------------|----------------|
||------9-------------|-(9)------------|
||--------------------|----------------|
||o-----7-------------|-(7)------------|
||------0-------------|-(0)------------|
|
||------0---x--0--x-0-|--0---x--0--x-0-|
||o-----0---x--0--x-0-|--0---x--0--x-0-|
||------1---x--1--x-1-|--1---x--1--x-1-|
||------2---x--2--x-2-|--2---x--2--x-2-|
||o-----2---x--2--x-2-|--2---x--2--x-2-|
||------0---x--0--x-0-|--0---x--0--x-0-|


                                            4x
|-16-----16--------|-16s17--17---17----17\--||
|------------------|-----------------------o||
|------------------|------------------------||
|------------------|------------------------||
|------------------|-----------------------o||
|------------------|------------------------||
|
|------------------|------------------------||
|------------------|-----------------------o||
|-(9)--------(9)-9-|--9s10--10---10----10---||
|------------------|------------------------||
|-(7)--------(7)-7-|--7s=8---8----8-----8--o||
|-(0)--------(0)-0-|--0-(0)-----------------||
|
|--0---x--0---x--0-|--0--0---0-0--0--0------||
|--0---x--0---x--0-|--0--0---0-0--0--0-----o||
|--1---x--1---x--1-|--1s=2---2-2--2--2------||
|--2---x--2---x--2-|--2s=3---3-3--3--3------||
|--2---x--2---x--2-|--2s=3---3-3--3--3-----o||
|--0---x--0---x--0-|--0--0---0-0--0--0------||


  Gtr I
|-----------------|-----------------|
|-----------------|-----------------|
|-----------------|-----------------|
|-----------------|-----------------|
|-----------------|-----------------|
|-----------------|-----------------|
| Gtr II
|     PM------|         PM|     PM
|-----------------|-----------------|
|-----------------|-----------------|
|-----------------|-----------------|
|-2---------------|-2-------2-------|
|-2---------------|-2-------2-------|
|-0---0-0-0---0---|-0---0-0-0---0---|
| Gtr III
| PM---------------------------------
|-----------------|-----------------|
|-----------------|-----------------|
|-----------------|-----------------|
|-----------------|-----------------|
|-2---------------|-2---------------|
|-0---0-0-0-0-0-0-|-0---0-0-0-0-0-0-|



|-----------------|--------------------------------|
|-----------------|--------------------------------|
|-----------------|-9s==10----10-------10------10s=|
|-----------------|--------------------------------|
|-----------------|-7s===8-----8--------8-------8s=|
|-----------------|-0---(0)------------------------|
|     PM|     PM
|-----------------|--------------------------------|
|-----------------|--------------------------------|
|-----------------|--------------------------------|
|-2-------2-------|-3----------3--------3----------|
|-2-------2-------|-3----------3--------3----------|
|-0---0-0-0---0---|-1----------1--------1----------|
|
| PM---------------------------------------------|
|-----------------|--------------------------------|
|-----------------|--------------------------------|
|-----------------|--------------------------------|
|-----------------|--------------------------------|
|-2---------------|--------------------------------|
|-0---0-0-0-0-0-0-|-1-1--1--1--1-1-1-1--1--1-1--1--|



||-----------------|-----------------|
||o----------------|-----------------|
||--9--------------|-----------------|
||-----------------|-----------------|
||o-7--------------|-----------------|
||-----------------|-----------------|
|
|      PM------|         PM|     PM
||-----------------|-----------------|
||o----------------|-----------------|
||-----------------|-----------------|
||--2--------------|-2-------2-------|
||o-2--------------|-2-------2-------|
||--0--0-0-0---0---|-0---0-0-0---0---|
|
|   PM--------------------------------
||-----------------|-----------------|
||o----------------|-----------------|
||-----------------|-----------------|
||-----------------|-----------------|
||o-2--------------|-2---------------|
||--0--0-0-0-0-0-0-|-0---0-0-0-0-0-0-|



|-----------------|----------------------------------||
|-----------------|---------------------------------o||
|-----------------|-9s==10----10-------10------10s===||
|-----------------|----------------------------------||
|-----------------|-7s===8-----8--------8-------8---o||
|-----------------|-0---(0)--------------------------||
|
|     PM|     PM
|-----------------|----------------------------------||
|-----------------|---------------------------------o||
|-----------------|----------------------------------||
|-2-------2-------|-3----------3--------3------------||
|-2-------2-------|-3----------3--------3-----------o||
|-0---0-0-0---0---|-1----------1--------1------------||
|
|  PM--------------------------------------------|
|-----------------|----------------------------------||
|-----------------|---------------------------------o||
|-----------------|----------------------------------||
|-----------------|----------------------------------||
|-2---------------|---------------------------------o||
|-0---0-0-0-0-0-0-|-1-1--1--1--1-1-1-1--1--1-1--1----||



|----------------|-----------------|-----------------|-------------||
|----------------|-----------------|-----------------|-------------||
|-9--------------|-----------------|-9-9-9-9-9---9---|-9-9-9-9-9-9-||
|----------------|-----------------|-----------------|-------------||
|-7--------------|-----------------|-7-7-7-7-7---7---|-7-7-7-7-7-7-||
|----------------|-----------------|-0-0-0-0-0---0---|-0-0-0-0-0-0-||
|
|    PM------|         PM|     PM        PM|     PM
|----------------|-----------------|-----------------|-------------||
|----------------|-----------------|-----------------|-------------||
|----------------|-----------------|-----------------|-------------||
|-2--------------|-2-------2-------|-2-------2-------|-2-2-2-2-2-2-||
|-2--------------|-2-------2-------|-2-------2-------|-2-2-2-2-2-2-||
|-0--0-0-0---0---|-0---0-0-0---0---|-0---0-0-0---0---|-0-0-0-0-0-0-||
|
|
|-0------0-0-0-0-|-0-------0-0-0-0-|-0-------0-0-0-0-|-0-0-0-0-0-0-||
|-0------0-0-0-0-|-0-------0-0-0-0-|-0-------0-0-0-0-|-0-0-0-0-0-0-||
|-1--1-1-1-1-1-1-|-1---1-1-1-1-1-1-|-1---1-1-1-1-1-1-|-1-1-1-1-1-1-||
|-2--2-2-2-2-2-2-|-2---2-2-2-2-2-2-|-2---2-2-2-2-2-2-|-2-2-2-2-2-2-||
|-2--2-2-2-2-2-2-|-2---2-2-2-2-2-2-|-2---2-2-2-2-2-2-|-2-2-2-2-2-2-||
|-0--0-0-0-0-0-0-|-0---0-0-0-0-0-0-|-0---0-0-0-0-0-0-|-0-0-0-0-0-0-||


 Guitar Solo
[Rhythm Guitar Only]
  Gtr III
                                                       4x
||--0-(0)-0-0-0-0-(0)-0-0-0-|-3-(3)-3-3-3-0-(0)-0-0-0--||
||o-2-(2)-2-2-2-2-(2)-2-2-2-|-3-(3)-3-3-3-1-(1)-1-1-1-o||
||--2-(2)-2-2-2-2-(2)-2-2-2-|-0-(0)-0-0-0-0-(0)-0-0-0--||
||--2-(2)-2-2-2-2-(2)-2-2-2-|-0-(0)-0-0-0-2-(2)-2-2-2--||
||o-0-(0)-0-0-0-0-(0)-0-0-0-|-2-(2)-2-2-2-3-(3)-3-3-3-o||
||--0-(0)-0-0-0-0-(0)-0-0-0-|-3-(3)-3-3-3-0-(0)-0-0-0--||


                                                        15x
||--0--x-0-x-0-|-0--x-0-x-0-|-0--x-0-x-0-|-0-0-0-0-0-0--||
||o-0--x-0-x-0-|-0--x-0-x-0-|-0--x-0-x-0-|-0-0-0-0-0-0-o||
||--1--x-1-x-1-|-1--x-1-x-1-|-1--x-1-x-1-|-1s2-2-2-2-2--||
||--2--x-2-x-2-|-2--x-2-x-2-|-2--x-2-x-2-|-2s3-3-3-3-3--||
||o-2--x-2-x-2-|-2--x-2-x-2-|-2--x-2-x-2-|-2s3-3-3-3-3-o||
||--0--x-0-x-0-|-0--x-0-x-0-|-0--x-0-x-0-|-0-0-0-0-0-0--||



|-0------0-0-0-0-|-0------0-0-0-0-|-0------0-0-0-0-|-0-0-0-0-0-0-||
|-0------0-0-0-0-|-0------0-0-0-0-|-0------0-0-0-0-|-0-0-0-0-0-0-||
|-1--1-1-1-1-1-1-|-1--1-1-1-1-1-1-|-1--1-1-1-1-1-1-|-1-1-1-1-1-1-||
|-2--2-2-2-2-2-2-|-2--2-2-2-2-2-2-|-2--2-2-2-2-2-2-|-2-2-2-2-2-2-||
|-2--2-2-2-2-2-2-|-2--2-2-2-2-2-2-|-2--2-2-2-2-2-2-|-2-2-2-2-2-2-||
|-0--0-0-0-0-0-0-|-0--0-0-0-0-0-0-|-0--0-0-0-0-0-0-|-0-0-0-0-0-0-||


                                                       4x
||--0-(0)-0-0-0-0-(0)-0-0-0-|-3-(3)-3-3-3-0-(0)-0-0-0--||
||o-2-(2)-2-2-2-2-(2)-2-2-2-|-3-(3)-3-3-3-1-(1)-1-1-1-o||
||--2-(2)-2-2-2-2-(2)-2-2-2-|-0-(0)-0-0-0-0-(0)-0-0-0--||
||--2-(2)-2-2-2-2-(2)-2-2-2-|-0-(0)-0-0-0-2-(2)-2-2-2--||
||o-0-(0)-0-0-0-0-(0)-0-0-0-|-2-(2)-2-2-2-3-(3)-3-3-3-o||
||--0-(0)-0-0-0-0-(0)-0-0-0-|-3-(3)-3-3-3-0-(0)-0-0-0--||



|-2-(2)-2-2-2-2-(2)-2-2-2-|-2-(2)-2-2-2-2-(2)-2-2-2-|
|-4-(4)-4-4-4-4-(4)-4-4-4-|-4-(4)-4-4-4-4-(4)-4-4-4-|
|-4-(4)-4-4-4-4-(4)-4-4-4-|-4-(4)-4-4-4-4-(4)-4-4-4-|
|-4-(4)-4-4-4-4-(4)-4-4-4-|-4-(4)-4-4-4-4-(4)-4-4-4-|
|-2-(2)-2-2-2-2-(2)-2-2-2-|-2-(2)-2-2-2-2-(2)-2-2-2-|
|-2-(2)-2-2-2-2-(2)-2-2-2-|-2-(2)-2-2-2-2-(2)-2-2-2-|



|-2-(2)-2-2-2-2-(2)-2-2-2-|-2-(2)-2-2-2-2-(2)-------3----||
|-4-(4)-4-4-4-4-(4)-4-4-4-|-4-(4)-4-4-4-4-(4)-2-(2)-3----||
|-4-(4)-4-4-4-4-(4)-4-4-4-|-4-(4)-4-4-4-4-(4)-2-(2)-0----||
|-4-(4)-4-4-4-4-(4)-4-4-4-|-4-(4)-4-4-4-4-(4)-2-(2)-0----||
|-2-(2)-2-2-2-2-(2)-2-2-2-|-2-(2)-2-2-2-2-(2)-0-(0)-2----||
|-2-(2)-2-2-2-2-(2)-2-2-2-|-2-(2)-2-2-2-2-(2)-------3----||


 Re-Intro

  Gtr I
                                                          |------8------|
|---------------|--------------|---------------|-------------------------------|
|---------------|--------------|---------------|----------3p0-3p0-3p0-3p0------|
|-9----9S5----5S|=7--7S=4--4-4S|=9----9S5----5S|=7----7S4-----------------4S===|
|---------------|--------------|---------------|-------------------------------|
|---------------|--------------|---------------|-------------------------------|
|---------------|--------------|---------------|-------------------------------|


|---------------|--------------|-------------------------------|
|---------------|--------------|-------------------------------|
|-9----9S5----5S|=7--7S=4----4-|-4s5-(5)-(5)-5s4---------------|
|---------------|--------------|-----------------4s5-(5)-(5)-5S|
|---------------|--------------|-------------------------------|
|---------------|--------------|-------------------------------|


  |-3-| |-3-| |-3-| |-3-|   |-3-| |-3-| |-3-| |-3-|
|-------------------------|----------------------------|
|-------------------------|----------------------------|
|-------------------------|----------------------------|
|-9-9-9-9-9-9-9-9-9-9-9-9-|-9-9-9-9-9-9-9-9-9-9-9-9----|
|-------------------------|----------------------------|
|-------------------------|----------------------------|


 Gtr II                                         D.S. al Coda
|----------------|----------|--------------------|-------||
|----------------|----------|--------------------|-------||
|----------------|----------|-9-9-(9)\--5--(5)\--|-------||
|----------------|----------|-9-9-(9)\--5--(5)\--|-------||
|----------------|----------|-7-7-(7)\--3--(3)\--|-------||
|----------------|----------|--------------------|-------||
|Gtr I
|----------------|----------|--------------------|-------||
|----------------|----------|--------------------|-------||
|-9-9-(9)\-------|----------|-9-9-(9)\--5--(5)\--|-------||
|----------------|----------|--------------------|-------||
|----------------|----------|--------------------|-------||
|----------------|----------|--------------------|-------||


 Outro
  &
  Gtr I
           |----6----|
|------------------------|--------------|---------------|---------------|
|----------3p0-3p0-3p0---|--------------|---------------|---------------|
|-9----9S5-------------5S|=7--7S=4----4S|=9----9S5----5S|=7----7S4----4-|
|------------------------|--------------|---------------|---------------|
|------------------------|--------------|---------------|---------------|
|------------------------|--------------|---------------|---------------|


|---------------|--------------|
|---------------|--------------|
|-9----9S5----5S|=7--7S=4----4-|
|---------------|--------------|
|---------------|--------------|
|---------------|--------------|


                                  |-3-| |-3-| |-3-| |-3-|
|-------------------------------|---------------------------|
|-------------------------------|---------------------------|
|-4s5-(5)-(5)-5s4---------------|---------------------------|
|-----------------4s5-(5)-(5)-5S|=9-9-9-9-9-9-9-9-9-9-9-9---|
|-------------------------------|---------------------------|
|-------------------------------|---------------------------|


           |----6----|
|------------------------|--------------|
|----------3p0-3p0-3p0---|--------------|
|-9----9S5-------------5S|=7--7S=4----4S|
|------------------------|--------------|
|------------------------|--------------|
|------------------------|--------------|


           |----6----|
|------------------------|---------------|
|----------3p0-3p0-3p0---|---------------|
|-9----9S5-------------5S|=7--7S=4----4--|
|------------------------|---------------|
|------------------------|---------------|
|------------------------|---------------|


|          |----6----|
|------------------------|--------------|
|----------3p0-3p0-3p0---|--------------|
|-9----9S5-------------5S|=7--7S=4----4-|
|------------------------|--------------|
|------------------------|--------------|
|------------------------|--------------|


|                                 |-3-| |-3-| |-3-| |-3-|
|-------------------------------|--------------------------|
|-------------------------------|--------------------------|
|-4s5-(5)-(5)-5s4---------------|--------------------------|
|-----------------4s5-(5)-(5)-5S|=9-9-9-9-9-9-9-9-9-9-9-9--|
|-------------------------------|--------------------------|
|-------------------------------|--------------------------|


  |-3-| |-3-|   |-3-| |-3-|   |-3-| |-3-|   |-3-| |-3-|
|-------------|-------------|-------------|--------------|
|-------------|-------------|-------------|--------------|
|-9-9-9S5-5-5S|=7-7-7S4-4-4S|=9-9-9S5-5-5S|=7-7-7S4-4-4--|
|-------------|-------------|-------------|--------------|
|-------------|-------------|-------------|--------------|
|-------------|-------------|-------------|--------------|


  Gtr II
|-------------|-------------|-----------------|---------------|
|-------------|-------------|-5---------------|-(5)----(5)----|
|-------------|-------------|-5---------------|-(5)----(5)----|
|-------------|-------------|-5---------------|-(5)----(5)----|
|-------------|-------------|-3---------------|-(3)----(3)----|
|-------------|-------------|-----------------|---------------|
| Gtr I
| |-3-| |-3-|   |-3-| |-3-|
|-------------|-------------|-----------------|---------------|
|-------------|-------------|-----------------|---------------|
|-9-9-9S5-5-5S|=7-7-7S4-4-4-|-4s5-(5)-(5)-----|-(5)-----------|
|-------------|-------------|-----------------|---------------|
|-------------|-------------|-----------------|---------------|
|-------------|-------------|-----------------|---------------|


  Gtr II
|----------|---------------|----------|---------------|
|-7--------|-(7)----(7)----|-8--------|-(8)----(8)----|
|-7--------|-(7)----(7)----|-8--------|-(8)----(8)----|
|-7--------|-(7)----(7)----|-8--------|-(8)----(8)----|
|-5--------|-(5)----(5)----|-6--------|-(6)----(6)----|
|----------|---------------|----------|---------------|


                                             3x
|-----------|-----------------||-------------||
|-10--------|-(10)----(10)----||o-12--------o||
|-10--------|-(10)----(10)----||--12---------||
|-10--------|-(10)----(10)----||--12---------||
|--8--------|--(8)-----(8)----||o-10--------o||
|-----------|-----------------||-------------||


|-----------------|--------------*|
|-(12)----(12)----|-12\----------*|
|-(12)----(12)----|-12\----------*|
|-(12)----(12)----|-12\----------*|
|-(10)----(10)----|-10\----------*|
|-----------------|--------------*|
Добавлено: 26.03.2016
Другие материалы по этой песне:
  • Аккорды и текст

Страница создана 26.03.2016
http://primanota.ru/dust/from-a-dry-camel-chords.htm
Привет, Гость.
Предлагаем пройти революционный курс по гитаре.
Подарок от PrimaNota.Ru, забирай!