PrimaNota.ru - самый крупный в мире бесплатный архив песенных текстов, аккордов, табулатур и нот


Dust - Chasin Ladies - таба, видео

Регистрация Запомнить меня
Войти через:  Facebook Google Twitter Vk Yandex Mail.ru

Dust - Chasin Ladies - таба, видео

Печатать
Просмотров: 41
Chasin' Ladies
by Dust

[NOTE: This is just the rhythm guitar part... no lead]

 Intro
        PM|                              PM|                         2x
||---------------------------------|---------------------------------||
||o--------------------------------|--------------------------------o||
||--9-9-x-x-9-(9)\-7-7-x-x---------|-9-9-x-x-9-(9)\-7-7-x-x----------||
||--9-9-x-x-9-(9)\-7-7-x-x-7-7-x-x-|-9-9-x-x-9-(9)\-7-7-x-x-7-7-x-x--||
||o-7-7-x-x-7-(7)\-5-5-x-x-7-7-x-x-|-7-7-x-x-7-(7)\-5-5-x-x-7-7-x-x-o||
||--0-0-0-0-0-(0)--5-5-x-x-5-5-x-x-|-0-0-0-0-0-(0)--5-5-x-x-5-5-x-x--||


 Verse I
        PM|                              PM|                         8x
||---------------------------------|---------------------------------||
||o--------------------------------|--------------------------------o||
||--9-9-x-x-9-(9)\-7-7-x-x---------|-9-9-x-x-9-(9)\-7-7-x-x----------||
||--9-9-x-x-9-(9)\-7-7-x-x-7-7-x-x-|-9-9-x-x-9-(9)\-7-7-x-x-7-7-x-x--||
||o-7-7-x-x-7-(7)\-5-5-x-x-7-7-x-x-|-7-7-x-x-7-(7)\-5-5-x-x-7-7-x-x-o||
||--0-0-0-0-0-(0)--5-5-x-x-5-5-x-x-|-0-0-0-0-0-(0)--5-5-x-x-5-5-x-x--||


               PM               PM               PM
|---------|----------------|----------------|----------------|
|---------|----------------|----------------|----------------|
|-9-------|-9--x-7--x------|-9--x-7--x------|-9--x-7--x------|
|-9-------|-9--x-7--x-7----|-9--x-7--x-7----|-9--x-7--x-7----|
|-7-------|-7--x-5--x-7----|-7--x-5--x-7----|-7--x-5--x-7----|
|-0-------|-0--0-5--x-5----|-0--0-5--x-5----|-0--0-5--x-5----|

                                                                        6x
||----------------------------------|-------------------------------------||
||o-9--9-(9)\-----------------------|-7--7-(7)\--------------------------o||
||--9--9-(9)\-------9-7---9-7---9-7-|-8--8-(8)\---------------------------||
||--9--9-(9)\---4s9-----9-----9-----|-9--9-(9)\-------9-7---9-7---9-7-----||
||o-7--7-(7)\-----------------------|-9--9-(9)\---4s9-----9-----9--------o||
||--0--0-(0)------------------------|-7--7-(7)----------------------------||


     PM               PM               PM        PM----------|
|----------------|----------------|----------------------------|
|----------------|----------------|----------------------------|
|-9--x-7--x------|-9--x-7--x------|-9--x-7--x----------------x-|
|-9--x-7--x-7----|-9--x-7--x-7----|-9--x-7--x-7--------------x-|
|-7--x-5--x-7----|-7--x-5--x-7----|-7--x-5--x-7--7-7-7-7-7-7-x-|
|-0--0-5--x-5----|-0--0-5--x-5----|-0--0-5--x-5--5-5-5-5-5-5-x-|


    |-3-|  |-3--|  |-3--|  |-3--| |-3-| |-3-|
||--------------------------------------------|------------------------||
||o-9-9-x-12-12-x--8--8-x-12-12-x-5-5-x-7-7-x-|-5--5-(5)-5-(5)-5--5-5-o||
||--9-9-x-12-12-x--9--9-x-12-12-x-5-5-x-7-7-x-|-6--6-(6)-6-(6)-6--6-6--||
||--9-9-x-12-12-x-10-10-x-12-12-x-5-5-x-7-7-x-|-7--7-(7)-7-(7)-7--7-7--||
||o-7-7-x-10-10-x-10-10-x-10-10-x-3-3-x-5-5-x-|-7--7-(7)-7-(7)-7--7-7-o||
||--7-7-x-10-10-x--8--8-x-10-10-x-3-3-x-5-5-x-|-5--5-(5)-5-(5)-5--5-5--||



      PM|                              PM|                        16x
||---------------------------------|---------------------------------||
||o--------------------------------|--------------------------------o||
||--9-9-x-x-9-(9)\-7-7-x-x---------|-9-9-x-x-9-(9)\-7-7-x-x----------||
||--9-9-x-x-9-(9)\-7-7-x-x-7-7-x-x-|-9-9-x-x-9-(9)\-7-7-x-x-7-7-x-x--||
||o-7-7-x-x-7-(7)\-5-5-x-x-7-7-x-x-|-7-7-x-x-7-(7)\-5-5-x-x-7-7-x-x-o||
||--0-0-0-0-0-(0)--5-5-x-x-5-5-x-x-|-0-0-0-0-0-(0)--5-5-x-x-5-5-x-x--||
Добавлено: 26.03.2016
Другие материалы по этой песне:
  • Аккорды и текст

Страница создана 26.03.2016
http://primanota.ru/dust/chasin-ladies-chords.htm
Привет, Гость.
Предлагаем пройти революционный курс по гитаре.
Подарок от PrimaNota.Ru, забирай!