PrimaNota.ru - самый крупный в мире бесплатный архив песенных текстов, аккордов, табулатур и нот


Dust For Life - Seed - текст песни, таба, видео

Регистрация Запомнить меня
Войти через:  Facebook Google Twitter Vk Yandex Mail.ru

Dust For Life - Seed - текст песни, таба, видео

Печатать
Просмотров: 162
-------------------------------------------------------------------------------
                             Seed - Dust For Life
-------------------------------------------------------------------------------
()-double digit frets
v-vibrato
h-hammer-on
p.m.-palm mute

By:adam williams
Gtr. 1&2 Riff A1
eb|---------------------------------|
Bb|---------------------------------|
Gb|---------------------------------|
Db|-22-22-22-22--22-22-22-22--------|
Ab|-22-22-22-22--22-22-22-22--------|
Db|-22-22-22-22--22-22-22-22--------|
After Riff A1 twice Gtr. 1 plays
eb|----7------------------------------|
Bb|----8------------------------------|
Gb|-----------------------------------|
Db|-----------------------------------|
Ab|-----------------------------------|
Db|-----------------------------------|
Sustain for 2 Riff A1's
Then Gtr. 1 plays Riff A2
eb|--7--7--7--7--7--8--8--8--8--8--9--9--9--9--9-------------------------------|
Bb|---8--8--8--8--8--8--8--8--8--8--8--8--8--8--8------------------------------|
Gb|----9--9--9--9--9--9--9--9--9--9--9--9--9--9--9-9-(11)(11)(11)(11)(11)-7h9v-|
Db|----------------------------------------------------------------------------|
Ab|----------------------------------------------------------------------------|
Db|----------------------------------------------------------------------------|
Gtr. 1 repeats Riff A2,Gtr. 2 repeats Riff A1 then they both go into Riff B
Riff B (verse)
e|-------------------------------------------------------|
B|-------------------------------------------------------|
G|-------------------------------------------------------|
D|-22-22-22-22--22-22-33-33--22-22-22-22--22-22-3-3-3333-|
A|-22-22-22-22--22-22-33-33--22-22-22-22--22-22-3-3-3333-|
D|-22-22-22-22--22-22-33-33--22-22-22-22--22-22-3-3-3333-|
Riff C (chorus)
e|--------------------------------------|
B|--------------------------------------|
G|--------------------------------------|
D|-02-22-02-22-875-252525-7-------------|
A|-02-22-02-22-875-252525-7-------------|
D|-02-22-02-22-875-252525-7-------------|
              p.m.|-----|
And Thats it except for the solo if anybody has corrections or knows
the solo email me at rackmaster32@yahoo.com
Добавлено: 12.05.2012
Вам также может быть интересно:
Другие материалы по этой песне:
  • Аккорды и текст

Страница создана 15.03.2012
http://primanota.ru/dust-for-life/seed-chords.htm
Привет, Гость.
Предлагаем пройти революционный курс по гитаре.
Подарок от PrimaNota.Ru, забирай!