PrimaNota.ru - самый крупный в мире бесплатный архив песенных текстов, аккордов, табулатур и нот


Dust And Blood - The Semen Song - таба, видео

Регистрация Запомнить меня
Войти через:  Facebook Google Twitter Vk Yandex Mail.ru

Dust And Blood - The Semen Song - таба, видео

Печатать
Просмотров: 126

Dust & Blood
The Semen Song
Tabbed by U B the band
Tuning C G C F A D

Legend
p-pull off                         b-bend                        r-return bend


Intro/Verse 1: Guitar 1 (Distorted)
D|----------------------------------------------------------------------------|
A|----------------------------------------------------------------------------|
F|----------------------------------------------------------------------------|
C|----------------------------------------------------------------------------|
G|----------------------------------------------------------------------------|
C|---------------------------------------12-99--12-99--12-99--12-99--12p9-12p9|

Verse 1: Guitars 1 & 2 (Distorted) Play 2 Times
D|----------------------------------------------------------------------------|
A|----------------------------------------------------------------------------|
F|----------------------------------------------------------------------------|
C|----------------------------------------------------------------------------|
G|----------------------------------------------------------------------------|
C|--12-99--12-99--12-99--12-99-12p9-12p9--11-99-11-99-11-99-11-99-11p9-11p9---|

Verse 1: Guitars 1 & 2 (Distorted)
D|----------------------------------------------------------------------------|
A|----------------------------------------------------------------------------|
F|----------------------------------------------------------------------------|
C|----------------------------------------------------------------------------|
G|----------------------------------------------------------------------------|
C|--12-99--12-99--12-99--12-99-12p9-12p9--11-99-11-99-11-11-11-11-11-11-11-11-|
                                                         |  Slowly bend 11's |

Pre Chorus: Guitar 1 (Distorted)
D|----------------------------------------------------------------------------|
A|----------------------------------------------------------------------------|
F|-11----11----11-11--11---11-11-11----12----12----12-12--12---12-12-12-------|
C|--9-----9-----9--9---9----9--9--9-----9-----9-----9--9---9----9--9--9-------|
G|--9-----9-----9--9---9----9--9--9----10----10----10-10--10---10-10-10-------|
C|--9-----9-----9--9---9----9--9--9-----9-----9-----9--9---9----9--9--9-------|
                                                                              |
Pre Chorus: Guitar 2 (Distorted)                                              |
D|----------------------------------------------------------------------------|
A|----------------------------------------------------------------------------|
F|--16161616-16161616-16161616-16161616-16161616-16161616---------------------|
C|---x-x-x-x--x-x-x-x--x-x-x-x--x-x-x-x--x-x-x-x--x-x-x-x-16-------16b(17)r16-|
G|--14141414-14141414-14141414-14141414-14141414-14141414---------------------|
C|----------------------------------------------------------------------------|

Pre Chorus: Guitar 1 (Distorted)
D|----------------------------------------------------------------------------|
A|----------------------------------------------------------------------------|
F|-13----13----13-13--13---13-13-13----12----12----12-12--12---12-12-12-------|
C|--9-----9-----9--9---9----9--9--9-----9-----9-----9--9---9----9--9--9-------|
G|-11----11----11-11--11---11-11-11----10----10----10-10--10---10-10-10-------|
C|--9-----9-----9--9---9----9--9--9-----9-----9-----9--9---9----9--9--9-------|
                                                                              |
Pre Chorus: Guitar 2 (Distorted)                                              |
D|----------------------------------------------------------------------------|
A|--------------------------------------------------------19-------19b(20)r19-|
F|--16161616-16161616-16161616-16161616-19191919-----------x------------------|
C|---x-x-x-x--x-x-x-x--x-x-x-x--x-x-x-x--x-x-x-x----------16------------------|
G|--14141414-14141414-14141414-14141414-17171717------------------------------|
C|----------------------------------------------------------------------------|

Pre Chorus: Guitar 1 (Distorted)
D|----------------------------------------------------------------------------|
A|----------------------------------------------------------------------------|
F|-11----11----11-11--11---11-11-11----12----12----12-12--12---12-12-12-------|
C|--9-----9-----9--9---9----9--9--9-----9-----9-----9--9---9----9--9--9-------|
G|--9-----9-----9--9---9----9--9--9----10----10----10-10--10---10-10-10-------|
C|--9-----9-----9--9---9----9--9--9-----9-----9-----9--9---9----9--9--9-------|
                                                                              |
Pre Chorus: Guitar 2 (Distorted)                                              |
D|----------------------------------------------------------------------------|
A|----------------------------------------------------------------------------|
F|--16161616-16161616-16161616-16161616-16161616-16161616-14141414-11111111b--|
C|---x-x-x-x--x-x-x-x--x-x-x-x--x-x-x-x--x-x-x-x--x-x-x-x--x-x-x-x--x-x-x-x---|
G|--14141414-14141414-14141414-14141414-14141414-14141414-12121212--9-9-9-9b--|
C|----------------------------------------------------------------------------|

Pre Chorus: Guitar 1 (Distorted)
D|----------------------------------------------------------------------------|
A|----------------------------------------------------------------------------|
F|-13----13----13-13--13---13-13-13----12----12----12-12--12---12-12-12-------|
C|--9-----9-----9--9---9----9--9--9-----9-----9-----9--9---9----9--9--9-------|
G|-11----11----11-11--11---11-11-11----10----10----10-10--10---10-10-10-------|
C|--9-----9-----9--9---9----9--9--9-----9-----9-----9--9---9----9--9--9-------|
                                                                              |
Pre Chorus: Guitar 2 (Distorted)                                              |
D|----------------------------------------------------------------------------|
A|--------------------------------------------------------19-------19b(20)r19-|
F|--16161616-16161616-16161616-16161616-19191919-----------x------------------|
C|---x-x-x-x--x-x-x-x--x-x-x-x--x-x-x-x--x-x-x-x----------16------------------|
G|--14141414-14141414-14141414-14141414-17171717------------------------------|
C|----------------------------------------------------------------------------|

Chorus: Guitar 1 (Distorted) Play Chorus 2 Times
D|----------------------------------------------------------------------------|
A|----------------------------------------------------------------------------|
F|----------------------------------------------------------------------------|
C|--9-9-9-9-9-9-9-9-9-9-9-9-9-9-9-9---7-7-7-7-7-7-7-7-7-7-7-7-7-7-7-7---------|
G|--9-9-9-9-9-9-9-9-9-9-9-9-9-9-9-9---7-7-7-7-7-7-7-7-7-7-7-7-7-7-7-7---------|
C|--9-9-9-9-9-9-9-9-9-9-9-9-9-9-9-9---7-7-7-7-7-7-7-7-7-7-7-7-7-7-7-7---------|
                                                                              |
Chorus: Guitar 2 (Distorted)                                                  |
D|----------------------------------------------------------------------------|
A|----------------------------------------------------------------------------|
F|--9-9-9-11-11-11-9-9-9--------------9-9-9-11-11-11-9-9-9--------------------|
C|----------------------12-12-12-9-12---------------------12-12-12-9-12-------|
G|----------------------------------------------------------------------------|
C|----------------------------------------------------------------------------|

Chorus: Guitar 1 (Distorted)
D|----------------------------------------------------------------------------|
A|----------------------------------------------------------------------------|
F|----------------------------------------------------------------------------|
C|--2-2-2-2-2-2-2-2-2-2-2-2-2-2-2-2---2-2-2-2-2-2-2-2-2-2-2-2-2-2-2-2---------|
G|--2-2-2-2-2-2-2-2-2-2-2-2-2-2-2-2---2-2-2-2-2-2-2-2-2-2-2-2-2-2-2-2---------|
C|--2-2-2-2-2-2-2-2-2-2-2-2-2-2-2-2---2-2-2-2-2-2-2-2-2-2-2-2-2-2-2-2---------|
                                                                              |
Chorus: Guitar 2 (Distorted)                                                  |
D|----------------------------------------------------------------------------|
A|------------------------------------10-10b101010101010(11)b101010101010(12)-|
F|--9-9-9-11-11-11-9-9-9------------------------------------------------------|
C|----------------------12-12-12-7-12-----------------------------------------|
G|----------------------------------------------------------------------------|
C|----------------------------------------------------------------------------|
                                     |This part is a slow full step bend|

Post Chorus: Guitar 1 (Distorted)
D|----------------------------------------------------------------------------|
A|----------------------------------------------------------------------------|
F|----------------------------------------------------------------------------|
C|----------------------------------------------------------------------------|
G|----------------------------------------------------------------------------|
C|--12-99--12-99--12-99--12-99--12--------------------------------------------|

Verse 2: Guitars 1 & 2 (Distorted) Play 3 Times
D|----------------------------------------------------------------------------|
A|----------------------------------------------------------------------------|
F|----------------------------------------------------------------------------|
C|----------------------------------------------------------------------------|
G|----------------------------------------------------------------------------|
C|--12-99--12-99--12-99--12-99-12p9-12p9--11-99-11-99-11-99-11-99-11p9-11p9---|

Verse 2: Guitars 1 & 2 (Distorted)
D|----------------------------------------------------------------------------|
A|----------------------------------------------------------------------------|
F|----------------------------------------------------------------------------|
C|----------------------------------------------------------------------------|
G|----------------------------------------------------------------------------|
C|--12-99--12-99--12-99--12-99-12p9-12p9--11-99-11-99-11-11-11-11-11-11-11-11-|
                                                         |  Slowly bend 11's  

Pre Chorus: Guitar 1 (Distorted)
D|----------------------------------------------------------------------------|
A|----------------------------------------------------------------------------|
F|-11----11----11-11--11---11-11-11----12----12----12-12--12---12-12-12-------|
C|--9-----9-----9--9---9----9--9--9-----9-----9-----9--9---9----9--9--9-------|
G|--9-----9-----9--9---9----9--9--9----10----10----10-10--10---10-10-10-------|
C|--9-----9-----9--9---9----9--9--9-----9-----9-----9--9---9----9--9--9-------|
                                                                              |
Pre Chorus: Guitar 2 (Distorted)                                              |
D|----------------------------------------------------------------------------|
A|----------------------------------------------------------------------------|
F|--16161616-16161616-16161616-16161616-16161616-16161616---------------------|
C|---x-x-x-x--x-x-x-x--x-x-x-x--x-x-x-x--x-x-x-x--x-x-x-x-16-------16b(17)r16-|
G|--14141414-14141414-14141414-14141414-14141414-14141414---------------------|
C|----------------------------------------------------------------------------|

Pre Chorus: Guitar 1 (Distorted)
D|----------------------------------------------------------------------------|
A|----------------------------------------------------------------------------|
F|-13----13----13-13--13---13-13-13----12----12----12-12--12---12-12-12-------|
C|--9-----9-----9--9---9----9--9--9-----9-----9-----9--9---9----9--9--9-------|
G|-11----11----11-11--11---11-11-11----10----10----10-10--10---10-10-10-------|
C|--9-----9-----9--9---9----9--9--9-----9-----9-----9--9---9----9--9--9-------|
                                                                              |
Pre Chorus: Guitar 2 (Distorted)                                              |
D|----------------------------------------------------------------------------|
A|--------------------------------------------------------19-------19b(20)r19-|
F|--16161616-16161616-16161616-16161616-19191919-----------x------------------|
C|---x-x-x-x--x-x-x-x--x-x-x-x--x-x-x-x--x-x-x-x----------16------------------|
G|--14141414-14141414-14141414-14141414-17171717------------------------------|
C|----------------------------------------------------------------------------|

Pre Chorus: Guitar 1 (Distorted)
D|----------------------------------------------------------------------------|
A|----------------------------------------------------------------------------|
F|-11----11----11-11--11---11-11-11----12----12----12-12--12---12-12-12-------|
C|--9-----9-----9--9---9----9--9--9-----9-----9-----9--9---9----9--9--9-------|
G|--9-----9-----9--9---9----9--9--9----10----10----10-10--10---10-10-10-------|
C|--9-----9-----9--9---9----9--9--9-----9-----9-----9--9---9----9--9--9-------|
                                                                              |
Pre Chorus: Guitar 2 (Distorted)                                              |
D|----------------------------------------------------------------------------|
A|----------------------------------------------------------------------------|
F|--16161616-16161616-16161616-16161616-16161616-16161616-14141414-11111111b--|
C|---x-x-x-x--x-x-x-x--x-x-x-x--x-x-x-x--x-x-x-x--x-x-x-x--x-x-x-x--x-x-x-x---|
G|--14141414-14141414-14141414-14141414-14141414-14141414-12121212--9-9-9-9b--|
C|----------------------------------------------------------------------------|

Pre Chorus: Guitar 1 (Distorted)
D|----------------------------------------------------------------------------|
A|----------------------------------------------------------------------------|
F|-13----13----13-13--13---13-13-13----12----12----12-12--12---12-12-12-------|
C|--9-----9-----9--9---9----9--9--9-----9-----9-----9--9---9----9--9--9-------|
G|-11----11----11-11--11---11-11-11----10----10----10-10--10---10-10-10-------|
C|--9-----9-----9--9---9----9--9--9-----9-----9-----9--9---9----9--9--9-------|
                                                                              |
Pre Chorus: Guitar 2 (Distorted)                                              |
D|----------------------------------------------------------------------------|
A|--------------------------------------------------------19-------19b(20)r19-|
F|--16161616-16161616-16161616-16161616-19191919-----------x------------------|
C|---x-x-x-x--x-x-x-x--x-x-x-x--x-x-x-x--x-x-x-x----------16------------------|
G|--14141414-14141414-14141414-14141414-17171717------------------------------|
C|----------------------------------------------------------------------------|

Chorus: Guitar 1 (Distorted) Play Chorus 2 Times
D|----------------------------------------------------------------------------|
A|----------------------------------------------------------------------------|
F|----------------------------------------------------------------------------|
C|--9-9-9-9-9-9-9-9-9-9-9-9-9-9-9-9---7-7-7-7-7-7-7-7-7-7-7-7-7-7-7-7---------|
G|--9-9-9-9-9-9-9-9-9-9-9-9-9-9-9-9---7-7-7-7-7-7-7-7-7-7-7-7-7-7-7-7---------|
C|--9-9-9-9-9-9-9-9-9-9-9-9-9-9-9-9---7-7-7-7-7-7-7-7-7-7-7-7-7-7-7-7---------|
                                                                              |
Chorus: Guitar 2 (Distorted)                                                  |
D|----------------------------------------------------------------------------|
A|----------------------------------------------------------------------------|
F|--9-9-9-11-11-11-9-9-9--------------9-9-9-11-11-11-9-9-9--------------------|
C|----------------------12-12-12-9-12---------------------12-12-12-9-12-------|
G|----------------------------------------------------------------------------|
C|----------------------------------------------------------------------------|

Chorus: Guitar 1 (Distorted)
D|----------------------------------------------------------------------------|
A|----------------------------------------------------------------------------|
F|----------------------------------------------------------------------------|
C|--2-2-2-2-2-2-2-2-2-2-2-2-2-2-2-2---2-2-2-2-2-2-2-2-2-2-2-2-2-2-2-2---------|
G|--2-2-2-2-2-2-2-2-2-2-2-2-2-2-2-2---2-2-2-2-2-2-2-2-2-2-2-2-2-2-2-2---------|
C|--2-2-2-2-2-2-2-2-2-2-2-2-2-2-2-2---2-2-2-2-2-2-2-2-2-2-2-2-2-2-2-2---------|
                                                                              |
Chorus: Guitar 2 (Distorted)                                                  |
D|----------------------------------------------------------------------------|
A|------------------------------------10-10b101010101010(11)b101010101010(12)-|
F|--9-9-9-11-11-11-9-9-9------------------------------------------------------|
C|----------------------12-12-12-9-12-----------------------------------------|
G|----------------------------------------------------------------------------|
C|----------------------------------------------------------------------------|
                                     |This part is a slow full step bend|

Bridge: Guitar 1 (Distorted) Play Bridge 2 Times
D|----------------------------------------------------------------------------|
A|----------------------------------------------------------------------------|
F|----------------------------------------------------------------------------|
C|--9--9--9-9-9-9-9--9--9--9-9-9-9-9--9--9------7--7--7-7-7-7-7---7--7--7-7-7-|
G|--9--9--9-9-9-9-9--9--9--9-9-9-9-9--9--9------7--7--7-7-7-7-7---7--7--7-7-7-|
C|--9--9--9-9-9-9-9--9--9--9-9-9-9-9--9--9------7--7--7-7-7-7-7---7--7--7-7-7-|
                                                                              |
Bridge: Guitar 2 (Distorted & Tremolo)                                        |
D|--19------17----------------------------------------------------------------|
A|------------------19------20------19----20----17------19------20------------|
F|----------------------------------------------------------------------------|
C|----------------------------------------------------------------------------|
G|----------------------------------------------------------------------------|
C|----------------------------------------------------------------------------|

Bridge: Guitar 1 (Distorted)
D|----------------------------------------------------------------------------|
A|----------------------------------------------------------------------------|
F|----------------------------------------------------------------------------|
C|---7-7--7--7----5--5--5-5-5-5-5---5--5--5-5-5-5-5--5--5---7--7---7--7--7-7--|
G|---7-7--7--7----5--5--5-5-5-5-5---5--5--5-5-5-5-5--5--5---5--5---4--4--4-4--|
C|---7-7--7--7----5--5--5-5-5-5-5---5--5--5-5-5-5-5--5--5---4--4---4--4--4-4--|
                                                                              |
Bridge: Guitar 2 (Distorted & Tremolo)                                        |
D|----------------------------------------------------------------------------|
A|--19b(20)-------------------------19----------------------------------------|
F|----------------19-------21----------------21b(22)--------19--------18------|
C|----------------------------------------------------------------------------|
G|----------------------------------------------------------------------------|
C|----------------------------------------------------------------------------|

Outro: Guitar 1 (Distorted)
D|----------------------------------------------------------------------------|
A|----------------------------------------------------------------------------|
F|-11----------------------------------12-------------------------------------|
C|--9-----------------------------------9-------------------------------------|
G|--9----------------------------------10-------------------------------------|
C|--9-----------------------------------9-------------------------------------|
                                                                              |
Outro: Guitar 2 (Distorted)                                                   |
D|----------------------------------------------------------------------------|
A|----------------------------------------------------------------------------|
F|--16------------------------------------------------------------------------|
C|----------------------------------------------------------------------------|
G|----------------------------------------------------------------------------|
C|----------------------------------------------------------------------------|

Outro: Guitar 1 (Distorted)
D|----------------------------------------------------------------------------|
A|----------------------------------------------------------------------------|
F|-13----------------------------------12-------------------------------------|
C|--9-----------------------------------9-------------------------------------|
G|-11----------------------------------10-------------------------------------|
C|--9-----------------------------------9-------------------------------------|

Outro: Guitar 1 (Distorted)
D|----------------------------------------------------------------------------|
A|----------------------------------------------------------------------------|
F|-11----------------------------------12-------------------------------------|
C|--9-----------------------------------9-------------------------------------|
G|--9----------------------------------10-------------------------------------|
C|--9-----------------------------------9-------------------------------------|

Outro: Guitar 1 (Distorted)
D|----------------------------------------------------------------------------|
A|----------------------------------------------------------------------------|
F|-13----------------------------------12-------------------------------------|
C|--9-----------------------------------9-------------------------------------|
G|-11----------------------------------10-------------------------------------|
C|--9-----------------------------------9-------------------------------------|

Outro: Guitar 1 (Distorted)
D|----------------------------------------------------------------------------|
A|----------------------------------------------------------------------------|
F|-11-------------------------------------------------------------------------|
C|--9-------------------------------------------------------------------------|
G|--9-------------------------------------------------------------------------|
C|--9-------------------------------------------------------------------------|

Finished!
Добавлено: 07.04.2012
Другие материалы по этой песне:
  • Аккорды и текст

Страница создана 07.04.2012
http://primanota.ru/dust-and-blood/the-semen-song-chords.htm
Привет, Гость.
Предлагаем пройти революционный курс по гитаре.
Подарок от PrimaNota.Ru, забирай!