PrimaNota.ru - самый крупный в мире бесплатный архив песенных текстов, аккордов, табулатур и нот


Dust And Blood - The Rope - таба, бас-таба, видео

Регистрация Запомнить меня
Войти через:  Facebook Google Twitter Vk Yandex Mail.ru

Dust And Blood - The Rope - таба, бас-таба, видео

Печатать
Просмотров: 180
Dust & Blood
The Rope
Tabbed by U B the band
Tuning C G C F A D

Intro: Guitar 1 PLAY 2 TIMES
D|-------0------0-----------0------0-----------0-----0---------0-----0-------|
A|----12-----12-----12---10-----10---10--0---8-----8-----8---7-----7---7--0--|
F|--9------9------9----9------9------------9-----9-----9---9-----9-----------|
C|---------------------------------------------------------------------------|
G|---------------------------------------------------------------------------|
C|---------------------------------------------------------------------------|

Verse 1: Guitar 1 PLAY 7 TIMES
D|-------0------0-----------0------0-----------0-----0---------0-----0-------|
A|----12-----12-----12---10-----10---10--0---8-----8-----8---7-----7---7--0--|
F|--9------9------9----9------9------------9-----9-----9---9-----9-----------|
C|---------------------------------------------------------------------------|
G|---------------------------------------------------------------------------|
C|---------------------------------------------------------------------------|
                                                                             |
Verse 1: Guitar 2 (Comes in when guitar 1 play on 4th time, PLAY 4 TIMES)    |
D|---------------------------------------------------------------------------|
A|-----------------------------------------5---------------------------------|
F|--9------------------7-------------------5---------------7-----------------|
C|--9------------------7-------------------5---------------7-----------------|
G|--7------------------5-------------------7---------------9-----------------|
C|---------------------------------------------------------------------------|

Chorus: PLAY 2 TIMES (Distorted)
D|---------------------------------------------------------------------------|
A|---------------------------------------------------------8-8-8-7-7-7-7-7---|
F|--4--4--4-----------5--5--5------5----7--7--7--7-7-7-7-7-7-7-7-7-7-7-7-7---|
C|--2--2--2------2----5--5--5------5----x--x--x--x-x-x-x-x-x-x-x-x-x-x-x-x---|
G|--2--2--2------2----3--3--3------3----5--5--5--5-5-5-5-5-5-5-5-5-5-5-5-5---|
C|--2--2--2------2----------------------0--0--0------------------------------|
                                                                             |
Chorus: Guitar 1 (Distorted) PLAY 2 TIMES                                    |
D|---------------------------------------------------------------------------|
A|---------------------------------------------------------------------------|
F|--4--4--4-----------5--5--5------5----7--7--7--7-7-7-7-7-7-7-7-7-7-7-7-7---|
C|--2--2--2------2----5--5--5------5----x--x--x--x-x-x-x-x-x-x-x-x-x-x-x-x---|
G|--2--2--2------2----3--3--3------3----5--5--5--5-5-5-5-5-5-5-5-5-5-5-5-5---|
C|--2--2--2------2----------------------0--0--0------------------------------|

Verse 2: Guitar 1 PLAY 7 TIMES
D|-------0------0-----------0------0-----------0-----0---------0-----0-------|
A|----12-----12-----12---10-----10---10--0---8-----8-----8---7-----7---7--0--|
F|--9------9------9----9------9------------9-----9-----9---9-----9-----------|
C|---------------------------------------------------------------------------|
G|---------------------------------------------------------------------------|
C|---------------------------------------------------------------------------|
                                                                             |
Verse 2: Guitar 2 (PLAY 7 TIMES)                                             |
D|---------------------------------------------------------------------------|
A|-----------------------------------------5---------------------------------|
F|--9------------------7-------------------5---------------7-----------------|
C|--9------------------7-------------------5---------------7-----------------|
G|--7------------------5-------------------7---------------9-----------------|
C|---------------------------------------------------------------------------|

Chorus: Guitar 1 (Distorted) PLAY ENTIRE CHORUS 2 TIMES
D|---------------------------------------------------------------------------|
A|---------------------------------------------------------------------------|
F|--4--4--4-----------5--5--5------5----7--7--7--7-7-7-7-7-7-7-7-7-7-7-7-7---|
C|--2--2--2------2----5--5--5------5----x--x--x--x-x-x-x-x-x-x-x-x-x-x-x-x---|
G|--2--2--2------2----3--3--3------3----5--5--5--5-5-5-5-5-5-5-5-5-5-5-5-5---|
C|--2--2--2------2----------------------0--0--0------------------------------|
                                                                             |
Chorus: Guitar 1 (Distorted)                                                 |
D|---------------------------------------------------------------------------|
A|---------------------------------------------------------7-7-7-7-7-7-7-7---|
F|--4--4--4-----------5--5--5------5----7--7--7--7-7-7-7-7-7-7-7-7-7-7-7-7---|
C|--2--2--2------2----5--5--5------5----x--x--x--x-x-x-x-x-x-x-x-x-x-x-x-x---|
G|--2--2--2------2----3--3--3------3----5--5--5--5-5-5-5-5-5-5-5-5-5-5-5-5---|
C|--2--2--2------2----------------------0--0--0------------------------------|

Chorus: Guitar 1 (Distorted)
D|---------------------------------------------------------------------------|
A|---------------------------------------------------------------------------|
F|--9-----------------12----------------14----------------12121212-11111111--|
C|--x------------------x-----------------x-----------------x-x-x-x--x-x-x-x--|
G|--7-----------------10----------------12----------------10101010--9-9-9-9--|
C|---------------------------------------------------------------------------|
                                                                             |
Chorus: Guitar 1 (Distorted)                                                 |
D|---------------------------------------------------------------------------|
A|---------------------------------------------------------7-7-7-7-7-7-7-7---|
F|--4--4--4-----------5--5--5------5----7--7--7--7-7-7-7-7-7-7-7-7-7-7-7-7---|
C|--2--2--2------2----5--5--5------5----x--x--x--x-x-x-x-x-x-x-x-x-x-x-x-x---|
G|--2--2--2------2----3--3--3------3----5--5--5--5-5-5-5-5-5-5-5-5-5-5-5-5---|
C|--2--2--2------2----------------------0--0--0------------------------------|

Bridge: Guitar 1 PLAY 4 TIMES
D|------7-----7-----------7-----7-----------10----10----------8-----8--------|
A|----8-----8-----8----10----10-----10----8-----8-----8----8-----8-----8-----|
F|--9-----9-----9----9-----9------9-----9-----9-----9----9-----9-----9-------|
C|---------------------------------------------------------------------------|
G|---------------------------------------------------------------------------|
C|---------------------------------------------------------------------------|
                                                                             |
Bridge: Guitar 2 (Distorted) PLAY 4 TIMES                                    |
D|---------------------------------------------------------------------------|
A|---------------------------------------------------------------------------|
F|-------------------7-7--7-7--7-7-7-7--7-7-7-7-7-7-7-7--5-5-5-5-5-5-5-5-----|
C|--2-2-2-2-2-2-2-2--7-7--7-7--7-7-7-7--7-7-7-7-7-7-7-7--5-5-5-5-5-5-5-5-----|
G|--2-2-2-2-2-2-2-2--5-5--5-5--5-5-5-5--5-5-5-5-5-5-5-5--3-3-3-3-3-3-3-3-----|
C|--2-2-2-2-2-2-2-2--0-0--0-0--0-0-0-0---------------------------------------|

Bridge Part 2: Guitar 1 (Distorted & Palm Muted)
D|---------------------------------------------------------------------------|
A|--8-8-8-8-8-8-8-8-7-7-7-7-7-7-7-7-10-10-10-10-10-10-10-10-8-8-8-8-8-8-8-8--|
F|--9-9-9-9-9-9-9-9-9-9-9-9-9-9-9-9-9--9--9--9--9--9--9--9--9-9-9-9-9-9-9-9--|
C|---------------------------------------------------------------------------|
G|---------------------------------------------------------------------------|
C|---------------------------------------------------------------------------|
                                                                             |
Bridge Part 2: Guitar 2 (Distorted)                                          |
D|---------------------------------------------------------------------------|
A|---------------------------------------------------------------------------|
F|-------------------2-----------------------------------5-------------------|
C|--2----------------0------------------0----------------5-------------------|
G|--2----------------0------------------0----------------3-------------------|
C|--2----------------0------------------0------------------------------------|

Bridge Part 2: Guitar 1 (Distorted & Palm Muted)
D|---------------------------------------------------------------------------|
A|--8-8-8-8-8-8-8-8-7-7-7-7-7-7-7-7-10-10-10-10-10-10-10-10-8-8-8-7-7-7-7-7--|
F|--9-9-9-9-9-9-9-9-9-9-9-9-9-9-9-9-9--9--9--9--9--9--9--9--9-9-9-9-9-9-9-9--|
C|---------------------------------------------------------------------------|
G|---------------------------------------------------------------------------|
C|---------------------------------------------------------------------------|
                                                                             |
Bridge Part 2: Guitar 2 (Distorted)                                          |
D|---------------------------------------------------------------------------|
A|---------------------------------------------------------------------------|
F|-------------------2-----------------------------------5-------------------|
C|--2----------------0------------------0----------------5-------------------|
G|--2----------------0------------------0----------------3-------------------|
C|--2----------------0------------------0------------------------------------|

Chorus: Guitar 1 (Distorted) PLAT ENTIRE CHORUS 2 TIMES
D|---------------------------------------------------------------------------|
A|---------------------------------------------------------------------------|
F|--4--4--4-----------5--5--5------5----7--7--7--7-7-7-7-7-7-7-7-7-7-7-7-7---|
C|--2--2--2------2----5--5--5------5----x--x--x--x-x-x-x-x-x-x-x-x-x-x-x-x---|
G|--2--2--2------2----3--3--3------3----5--5--5--5-5-5-5-5-5-5-5-5-5-5-5-5---|
C|--2--2--2------2----------------------0--0--0------------------------------|
                                                                             |
Chorus: Guitar 1 (Distorted)                                                 |
D|---------------------------------------------------------------------------|
A|---------------------------------------------------------7-7-7-7-7-7-7-7---|
F|--4--4--4-----------5--5--5------5----7--7--7--7-7-7-7-7-7-7-7-7-7-7-7-7---|
C|--2--2--2------2----5--5--5------5----x--x--x--x-x-x-x-x-x-x-x-x-x-x-x-x---|
G|--2--2--2------2----3--3--3------3----5--5--5--5-5-5-5-5-5-5-5-5-5-5-5-5---|
C|--2--2--2------2----------------------0--0--0------------------------------|

Chorus: Guitar 1 (Distorted)
D|---------------------------------------------------------------------------|
A|---------------------------------------------------------------------------|
F|--9-----------------12----------------14----------------12121212-11111111--|
C|--x------------------x-----------------x-----------------x-x-x-x--x-x-x-x--|
G|--7-----------------10----------------12----------------10101010--9-9-9-9--|
C|---------------------------------------------------------------------------|
                                                                             |
Chorus: Guitar 1 (Distorted)                                                 |
D|---------------------------------------------------------------------------|
A|---------------------------------------------------------7-7-7-7-7-7-7-7---|
F|--4--4--4-----------5--5--5------5----7--7--7--7-7-7-7-7-7-7-7-7-7-7-7-7---|
C|--2--2--2------2----5--5--5------5----x--x--x--x-x-x-x-x-x-x-x-x-x-x-x-x---|
G|--2--2--2------2----3--3--3------3----5--5--5--5-5-5-5-5-5-5-5-5-5-5-5-5---|
C|--2--2--2------2----------------------0--0--0------------------------------|

Outro Chord: Guitar 1
D|---------------------------------------------------------------------------|
A|---------------------------------------------------------------------------|
F|-11------------------------------------------------------------------------|
C|--x------------------------------------------------------------------------|
G|--9------------------------------------------------------------------------|
C|---------------------------------------------------------------------------|
                                                                             |
Outro Chord: Guitar 2                                                        |
D|---------------------------------------------------------------------------|
A|---------------------------------------------------------------------------|
F|--4------------------------------------------------------------------------|
C|--2------------------------------------------------------------------------|
G|--2------------------------------------------------------------------------|
C|--2------------------------------------------------------------------------|

Finished!

Добавлено: 14.06.2012
Вам также может быть интересно:
Другие материалы по этой песне:
  • Аккорды и текст

Страница создана 16.05.2012
http://primanota.ru/dust-and-blood/the-rope-chords.htm
Привет, Гость.
Предлагаем пройти революционный курс по гитаре.
Подарок от PrimaNota.Ru, забирай!