PrimaNota.ru - самый крупный в мире бесплатный архив песенных текстов, аккордов, табулатур и нот


Dust And Blood - Sickways - таба, видео

Регистрация Запомнить меня
Войти через:  Facebook Google Twitter Vk Yandex Mail.ru

Dust And Blood - Sickways - таба, видео

Печатать
Просмотров: 80
Dust & Blood
Sickways
Tabbed by U B the band
Tuning C G C F A D

Legend:
/-slide up              \-slide down

Intro: Guitar 1: 00:00 (Distorted & palm muted)
|---------------------------------------------------------------------|
|---------------------------------------------------------------------|
|---------------------------------------------------------------------|
|-------------------------------------5-5-5-5-5-5-5-5-5-5-5-5-5-5-5-5-|
|--2-2-2-2-2-2-2--2-2-2-2-2--0-0-0-0--3-3-3-3-3-3-3-3-3-3-3-3-3-3-3-3-|
|--2-2-2-2-2-2-2--2-2-2-2-2--0-0-0-0----------------------------------|

|---------------------------------------------------------------------|
|---------------------------------------------------------------------|
|---------------------------------------------------------------------|
|---------------------------------------------------------------------|
|--0-2-2-2-2-2-2-2-2-2-2-2-2-2-2-2-2--0-0-0-0-0-0-0-0-0-0-0-0-0-0-0-0-|
|--0-2-2-2-2-2-2-2-2-2-2-2-2-2-2-2-2--0-0-0-0-0-0-0-0-0-0-0-0-0-0-0-0-|

|---------------------------------------------------------------------|
|---------------------------------------------------------------------|
|---------------------------------------------------------------------|
|-----------------------------------5-5-5-5-5-5-5-5-5-5-5-5-5-5-5-5---|
|--2-2-2-2-2-2-2-2-2-2-2-2-2-2-2--0-3-3-3-3-3-3-3-3-3-3-3-3-3-3-3-3---|
|--2-2-2-2-2-2-2-2-2-2-2-2-2-2-2--0-----------------------------------|

|---------------------------------------------------------------------|
|---------------------------------------------------------------------|
|---------------------------------------------------------------------|
|--7-7-7-7-7-7-7-7-7-7-7-7-7-7-7-7------------------------------------|
|--5-5-5-5-5-5-5-5-5-5-5-5-5-5-5-5------------------------------------|
|---------------------------------------------------------------------|

Intro: Guitars 1 & 2: 00:22 / 00:28 (Distorted)
|---------------------------------------------------------------------|
|---------------------------------------------------------------------|
|---------------------------------------------------------------------|
|---------------------------------------------------------------------|
|---------------------------------------------------------------------|
|--22222222-/-10-10-10-10-10-10-10-10-\-99999999-\-5555-/-7777--------|

Verse 1: Guitar 1: 00:34 (Distorted & palm muted)
|---------------------------------------------------------------------|
|---------------------------------------------------------------------|
|---------------------------------------------------------------------|
|-----------------------------------5-5-5-5-5-5-5-5-5-5-5-5-5-5-5-5---|
|--2-2-2-2-2-2-2-2-2-2-2-2-2-2-2--0-3-3-3-3-3-3-3-3-3-3-3-3-3-3-3-3---|
|--2-2-2-2-2-2-2-2-2-2-2-2-2-2-2--0-----------------------------------|

|---------------------------------------------------------------------|
|---------------------------------------------------------------------|
|---------------------------------------------------------------------|
|---------------------------------------------------------------------|
|--0-2-2-2-2-2-2-2-2-2-2-2-2-2-2-2-2--0-0-0-0-0-0-0-0-0-0-0-0-0-0-0-0-|
|--0-2-2-2-2-2-2-2-2-2-2-2-2-2-2-2-2--0-0-0-0-0-0-0-0-0-0-0-0-0-0-0-0-|

Verse 1: Guitar 1: 00:47
|---------------------------------------------------------------------|
|---------------------------------------------------------------------|
|---------------------------------------------------------------------|
|-----------------------------------5-5-5-5-5-5-5-5-5-5-5-5-5-5-5-5---|
|--2-2-2-2-2-2-2-2-2-2-2-2-2-2-2--0-3-3-3-3-3-3-3-3-3-3-3-3-3-3-3-3---|
|--2-2-2-2-2-2-2-2-2-2-2-2-2-2-2--0-----------------------------------|

Verse 1: Guitar 2: 00:47 (clean)
|-----0------2-----3--------------------0------3-----2----------------|
|--0------0-----0--------------------0------0-----0-------------------|
|---------------------------------------------------------------------|
|---------------------------------------------------------------------|
|---------------------------------------------------------------------|
|---------------------------------------------------------------------|

Verse 1: Guitar 1: 00:53
|---------------------------------------------------------------------|
|---------------------------------------------------------------------|
|---------------------------------------------------------------------|
|--7-7-7-7-7-7-7-7--8-8-8-8-8-8-8-8-\---------------------------------|
|--5-5-5-5-5-5-5-5--6-6-6-6-6-6-6-6-\---------------------------------|
|---------------------------------------------------------------------|
                 ^-- Gradually let palm mute off

Verse 1: Guitar 2: 00:53 (clean)
|-----0------5-----3-----2-----0--------------------------------------|
|--0------0-----0-----0-----0-----------------------------------------|
|---------------------------------------------------------------------|
|---------------------------------------------------------------------|
|---------------------------------------------------------------------|
|---------------------------------------------------------------------|

Chorus Guitar 1: 00:56 (Distorted)
|---------------------------------------------------------------------|
|---------------------------------------------------------------------|
|---------------------------------------------------------------------|
|-----------------------------------5-5-5-5-5-5-5-5-5-5-5-5-5-5-5-5---|
|--2-2-2-2-2-2-2-2-2-2-2-2-2-2-2--0-3-3-3-3-3-3-3-3-3-3-3-3-3-3-3-3---|
|--2-2-2-2-2-2-2-2-2-2-2-2-2-2-2--0-----------------------------------|

Chorus Guitar 2: 00:56 (Distorted)
|--15--15--14-------------------------15--15--14----------------------|
|---------------12---------------------------------12-----------------|
|---------------------------------------------------------------------|
|---------------------------------------------------------------------|
|---------------------------------------------------------------------|
|---------------------------------------------------------------------|

Chorus Guitar 1: 01:02
|---------------------------------------------------------------------|
|---------------------------------------------------------------------|
|---------------------------------------------------------------------|
|--7-7-7-7-7-7-7-7--8-8-8-8-8-8-8-8-----------------------------------|
|--5-5-5-5-5-5-5-5--6-6-6-6-6-6-6-6-----------------------------------|
|---------------------------------------------------------------------|

Chorus Guitar 2: 01:02 (Distorted)
|--15--15--14---------------------------------------------------------|
|---------------12--13------------------------------------------------|
|---------------------------------------------------------------------|
|---------------------------------------------------------------------|
|---------------------------------------------------------------------|
|---------------------------------------------------------------------|

Chorus Guitar 1: 01:06
|---------------------------------------------------------------------|
|---------------------------------------------------------------------|
|---------------------------------------------------------------------|
|-----------------------------------5-5-5-5-5-5-5-5-5-5-5-5-5-5-5-5---|
|--2-2-2-2-2-2-2-2-2-2-2-2-2-2-2--0-3-3-3-3-3-3-3-3-3-3-3-3-3-3-3-3---|
|--2-2-2-2-2-2-2-2-2-2-2-2-2-2-2--0-----------------------------------|

Chorus Guitar 2: 01:06 (Distorted)
|--15--15--14-------------------------15--15--14----------------------|
|---------------12---------------------------------12-----------------|
|---------------------------------------------------------------------|
|---------------------------------------------------------------------|
|---------------------------------------------------------------------|
|---------------------------------------------------------------------|

Chorus Guitar 1: 01:12
|---------------------------------------------------------------------|
|---------------------------------------------------------------------|
|------------------------------------9-9-9-9-9-9-9-9-9-9-9-9-9-9-9----|
|--7-7-7-7-7-7-7-7--8-8-8-8-8-8-8-8--x-x-x-x-x-x-x-x-x-x-x-x-x-x-x----|
|--5-5-5-5-5-5-5-5--6-6-6-6-6-6-6-6--7-7-7-7-7-7-7-7-7-7-7-7-7-7-7----|
|---------------------------------------------------------------------|

Chorus Guitar 2: 01:12
|--15--15--14---------------------------------------------------------|
|---------------12--13------------------------------------------------|
|---------------------------------------------------------------------|
|---------------------------------------------------------------------|
|---------------------------------------------------------------------|
|---------------------------------------------------------------------|


Verse 2 (play verse 1) 01:18


Chorus Guitar 1: 01:40 / 01:46 / 01:58 / 02:08 (Distorted)
|---------------------------------------------------------------------|
|---------------------------------------------------------------------|
|---------------------------------------------------------------------|
|-----------------------------------5-5-5-5-5-5-5-5-5-5-5-5-5-5-5-5---|
|--2-2-2-2-2-2-2-2-2-2-2-2-2-2-2--0-3-3-3-3-3-3-3-3-3-3-3-3-3-3-3-3---|
|--2-2-2-2-2-2-2-2-2-2-2-2-2-2-2--0-----------------------------------|

Chorus Guitar 2: 01:40 / 01:46 / 01:58 / 02:08 (Distorted)
|--15--15--14-------------------------15--15--14----------------------|
|---------------12---------------------------------12-----------------|
|---------------------------------------------------------------------|
|---------------------------------------------------------------------|
|---------------------------------------------------------------------|
|---------------------------------------------------------------------|

Chorus Guitar 1: 01:46 / 01:55 / 02:05 / 02:14
|---------------------------------------------------------------------|
|---------------------------------------------------------------------|
|---------------------------------------------------------------------|
|--7-7-7-7-7-7-7-7--8-8-8-8-8-8-8-8-----------------------------------|
|--5-5-5-5-5-5-5-5--6-6-6-6-6-6-6-6-----------------------------------|
|---------------------------------------------------------------------|

Chorus Guitar 2: 01:46 / 01:55 / 02:05 / 02:14
|--15--15--14---------------------------------------------------------|
|---------------12--13------------------------------------------------|
|---------------------------------------------------------------------|
|---------------------------------------------------------------------|
|---------------------------------------------------------------------|
|---------------------------------------------------------------------|

Bridge Guitar 1 02:17
|---------------------------------------------------------------------|
|---------------------------------------------------------------------|
|--9-9-9-9-9-9-9-9-9-9-9-9-9-9-9-9--4-4-4-4-4-4-4-4-------------------|
|--9-9-9-9-9-9-9-9-9-9-9-9-9-9-9-9--4-4-4-4-4-4-4-4-------------------|
|--7-7-7-7-7-7-7-7-7-7-7-7-7-7-7-7--2-2-2-2-2-2-2-2-------------------|
|---------------------------------------------------------------------|

Bridge Guitar 2: 02:17 (Tremolo pick)
|---------------------------------------------------------------------|
|---------------------------------------------------------------------|
|--16-----------------------------------------------------------------|
|---x-----------------------------------------------------------------|
|--14-----------------------------------------------------------------|
|---------------------------------------------------------------------|

Bridge Guitar 1: 02:22
|---------------------------------------------------------------------|
|---------------------------------------------------------------------|
|--5-5-5-5-5-5-5-5--7-7-7-7-7-7-7-7-7-7-7-7-7-7-7-7-------------------|
|--5-5-5-5-5-5-5-5--7-7-7-7-7-7-7-7-7-7-7-7-7-7-7-7-------------------|
|--3-3-3-3-3-3-3-3--5-5-5-5-5-5-5-5-5-5-5-5-5-5-5-5-------------------|
|---------------------------------------------------------------------|

Bridge Guitar 2: 02:22 (Tremolo pick)
|---------------------------------------------------------------------|
|---------------------------------------------------------------------|
|--14----------------12----------------11-----------------------------|
|---x-----------------x-----------------x-----------------------------|
|--12----------------10-----------------9-----------------------------|
|---------------------------------------------------------------------|

Bridge Guitar 1: 02:27
|---------------------------------------------------------------------|
|---------------------------------------------------------------------|
|--4-4-4-4-4-4-4-4--5-5-5-5-5-5-5-5--7-7-7-7-7-7-7-7-7-7-7-7-7-7-7-7--|
|--4-4-4-4-4-4-4-4--5-5-5-5-5-5-5-5--7-7-7-7-7-7-7-7-7-7-7-7-7-7-7-7--|
|--2-2-2-2-2-2-2-2--3-3-3-3-3-3-3-3--5-5-5-5-5-5-5-5-5-5-5-5-5-5-5-5--|
|---------------------------------------------------------------------|

Bridge Guitar 2: 02:27 (Tremolo pick)
|---------------------------------------------------------------------|
|---------------------------------------------------------------------|
|--16---------------14---------------12---------------14--------------|
|---x----------------x----------------x----------------x--------------|
|--14---------------12---------------10---------------12--------------|
|---------------------------------------------------------------------|

Bridge Guitar 1: 02:33 
|---------------------------------------------------------------------|
|---------------------------------------------------------------------|
|--4-4-4-4-4-4-4-4--5-5-5-5-5-5-5-5--7-7-7-7-7-7-7-7-7-7-7-7-7-7-7-7--|
|--4-4-4-4-4-4-4-4--5-5-5-5-5-5-5-5--7-7-7-7-7-7-7-7-7-7-7-7-7-7-7-7--|
|--2-2-2-2-2-2-2-2--3-3-3-3-3-3-3-3--5-5-5-5-5-5-5-5-5-5-5-5-5-5-5-5--|
|---------------------------------------------------------------------|

Bridge Guitar 2: 02:33 (Tremolo pick)
|---------------------------------------------------------------------|
|---------------------------------------------------------------------|
|--16---------------17---------------19-------------------------------|
|---x----------------x----------------x-------------------------------|
|--14---------------15---------------17-------------------------------|
|---------------------------------------------------------------------|

Chorus Piano: 02:39 / 02:49
|---------------------------------------------------------------------|
|---------------------------------------------------------------------|
|--9--------------------------------5---------------------------------|
|--9--------------------------------5---------------------------------|
|--7--------------------------------3---------------------------------|
|---------------------------------------------------------------------|

Chorus Piano: 02:45 / 02:55
|---------------------------------------------------------------------|
|---------------------------------------------------------------------|
|--7----------------8-------------------------------------------------|
|--7----------------8-------------------------------------------------|
|--5----------------6-------------------------------------------------|
|---------------------------------------------------------------------|

Chorus Guitar 1: 02:55 (Distorted)
|---------------------------------------------------------------------|
|---------------------------------------------------------------------|
|---------------------------------------------------------------------|
|--7-7-7-7-7-7-7-7--8-8-8-8-8-8-8-8-----------------------------------|
|--5-5-5-5-5-5-5-5--6-6-6-6-6-6-6-6-----------------------------------|
|---------------------------------------------------------------------|

Chorus Guitar 1: 02:58 (Distorted)
|---------------------------------------------------------------------|
|---------------------------------------------------------------------|
|---------------------------------------------------------------------|
|-----------------------------------5-5-5-5-5-5-5-5-5-5-5-5-5-5-5-5---|
|--2-2-2-2-2-2-2-2-2-2-2-2-2-2-2--0-3-3-3-3-3-3-3-3-3-3-3-3-3-3-3-3---|
|--2-2-2-2-2-2-2-2-2-2-2-2-2-2-2--0-----------------------------------|

Chorus 2 Guitar 2: 02:58
|-----0------2-----3--------------------0------3-----2----------------|
|--0------0-----0--------------------0------0-------------------------|
|---------------------------------------------------------------------|
|---------------------------------------------------------------------|
|---------------------------------------------------------------------|
|---------------------------------------------------------------------|

Chorus Guitar 1: 03:04
|---------------------------------------------------------------------|
|---------------------------------------------------------------------|
|---------------------------------------------------------------------|
|--7-7-7-7-7-7-7-7--8-8-8-8-8-8-8-8-----------------------------------|
|--5-5-5-5-5-5-5-5--6-6-6-6-6-6-6-6-----------------------------------|
|---------------------------------------------------------------------|

Chorus 2 Guitar 2: 03:04
|------------5-5---3-----2--------------------------------------------|
|---------------------------------------------------------------------|
|---------------------------------------------------------------------|
|---------------------------------------------------------------------|
|---------------------------------------------------------------------|
|---------------------------------------------------------------------|

Chorus Guitar 1: 03:07 (Distorted)
|---------------------------------------------------------------------|
|---------------------------------------------------------------------|
|---------------------------------------------------------------------|
|-----------------------------------5-5-5-5-5-5-5-5-5-5-5-5-5-5-5-5---|
|--2-2-2-2-2-2-2-2-2-2-2-2-2-2-2--0-3-3-3-3-3-3-3-3-3-3-3-3-3-3-3-3---|
|--2-2-2-2-2-2-2-2-2-2-2-2-2-2-2--0-----------------------------------|

Chorus 2 Guitar 2: 03:07
|-----0------2-----3---3----------------0------3-----2----------------|
|--0------0-----0--------------------0------0-----0-------------------|
|---------------------------------------------------------------------|
|---------------------------------------------------------------------|
|---------------------------------------------------------------------|
|---------------------------------------------------------------------|

Chorus Guitar 1: 03:14
|---------------------------------------------------------------------|
|---------------------------------------------------------------------|
|---------------------------------------------------------------------|
|--7-7-7-7-7-7-7-7--8-8-8-8-8-8-8-8-----------------------------------|
|--5-5-5-5-5-5-5-5--6-6-6-6-6-6-6-6-----------------------------------|
|---------------------------------------------------------------------|

Chorus 2 Guitar 2: 03:14
|--------------5----3-------------------------------------------------|
|---------------------------------------------------------------------|
|---------------------------------------------------------------------|
|---------------------------------------------------------------------|
|---------------------------------------------------------------------|
|---------------------------------------------------------------------|

Finished!

http://www.dustandblood.com/
http://www.myspace.com/dustandbloodmusic
http://www.pulse-recording.com/

Добавлено: 07.04.2012
Другие материалы по этой песне:
  • Аккорды и текст

Страница создана 07.04.2012
http://primanota.ru/dust-and-blood/sickways-chords.htm
Привет, Гость.
Предлагаем пройти революционный курс по гитаре.
Подарок от PrimaNota.Ru, забирай!