PrimaNota.ru - самый крупный в мире бесплатный архив песенных текстов, аккордов, табулатур и нот


Dusk - Rk Lmok - таба

Регистрация Запомнить меня
Войти через:  Facebook Google Twitter Vk Yandex Mail.ru

Dusk - Rk Lmok - таба

Печатать
Просмотров: 101
Band: Dusk (http://www.dusk.cjb.net/)
Song: Örök Álmok
Album: Pray For Death
Tuning: EADGBE (A=450 Hz)

Legend:

W - Whole
H - Half
Q - Quarter
E - 8th
S - 16th
. - Dotted Note
/ - Slide
b - Bend
() - Ghost Note


Riff 1:

   Q  Q  Q  Q     Q  Q  Q  Q     Q  Q  Q  Q     Q  Q  Q  Q
|--------------|--------------|--------------|--------------|
|--------------|--------------|--------------|--------------|
|--1--1--1--1--|-/6--6--6--6--|-/9--9--9--9--|-/8--8-/9--8--|
|--------------|--------------|--------------|--------------|
|--------------|--------------|--------------|--------------|
|--------------|--------------|--------------|--------------|

Riff 2:

   Q  Q  Q  Q     Q  Q  Q  Q     Q  Q  Q  Q     Q  Q  Q  Q
|--------------|--------------|--------------|--------------|
|--------------|--------------|--------------|--------------|
|--1--1--1--1--|-/6--6--6--6--|-/4--4--4--4--|-/3--3--3--3--|
|--------------|--------------|--------------|--------------|
|--------------|--------------|--------------|--------------|
|--------------|--------------|--------------|--------------|

  H.       Q
|--------------|
|--------------|
|-/1-----b(1)--|
|--------------|
|--------------|
|--------------|

Riff 3:

  SSSSSSSSSSSSSSSS   SSSSSSSSSSSSSSSS   SSSSSSSSSSSSSSSS   SSSSSSSSSSSSSSSS
|------------------|------------------|------------------|------------------|
|------------------|------------------|------------------|------------------|
|-1111111111111111-|-2222111122224444-|-2222222222222222-|/4444222211112222-|
|------------------|------------------|------------------|------------------|
|------------------|------------------|------------------|------------------|
|------------------|------------------|------------------|------------------|

Riff 4:

  SSSSSSSSSSSSSSSS   SSSSSSSSSSSSSSSS   SSSSSSSSSSSSSSSS   SSSSSSSSSSSSSSSS
|------------------|------------------|------------------|------------------|
|------------------|------------------|------------------|------------------|
|-1111111111111111-|-6666666666666666-|-9999999999999999-|-8888888899998888-|
|------------------|------------------|------------------|------------------|
|------------------|------------------|------------------|------------------|
|------------------|------------------|------------------|------------------|

Riff 5:

   H.           Q     W                   H.          Q     W
|------------------|------------------|------------------|------------------|
|------------------|------------------|------------------|------------------|
|--6------------8--|--9---------------|-/8------------9--|--11--------------|
|------------------|------------------|------------------|------------------|
|------------------|------------------|------------------|------------------|
|------------------|------------------|------------------|------------------|


   H.           Q     W                  H.           Q     W
|------------------|------------------|------------------|------------------|
|------------------|------------------|------------------|------------------|
|--11-----------9--|--8---------------|-/9------------8--|-/6---------------|
|------------------|------------------|------------------|------------------|
|------------------|------------------|------------------|------------------|
|------------------|------------------|------------------|------------------|

Riff 6:

   W                  W                  W                  W
|------------------|------------------|------------------|------------------|
|------------------|------------------|------------------|------------------|
|--9---------------|--8---------------|-/11--------------|--9---------------|
|------------------|------------------|------------------|------------------|
|------------------|------------------|------------------|------------------|
|------------------|------------------|------------------|------------------|

   W                  W                  W                  W
|------------------|------------------|------------------|------------------|
|------------------|------------------|------------------|------------------|
|-/13--------------|-/11--------------|--13--------------|--11--------------|
|------------------|------------------|------------------|------------------|
|------------------|------------------|------------------|------------------|
|------------------|------------------|------------------|------------------|

   W                  W                  W                  W
|------------------|------------------|------------------|------------------|
|------------------|------------------|------------------|------------------|
|--9---------------|--8---------------|--9---------------|--8---------------|
|------------------|------------------|------------------|------------------|
|------------------|------------------|------------------|------------------|
|------------------|------------------|------------------|------------------|

   W                 W
|------------------|------------------|
|------------------|------------------|
|-/6---------------|(6)---------------|
|------------------|------------------|
|------------------|------------------|
|------------------|------------------|

Riff 7:

   W                  W                  W                  W
|------------------|------------------|------------------|------------------|
|------------------|------------------|------------------|------------------|
|--13--------------|-/11--------------|--13--------------|-/11--------------|
|------------------|------------------|------------------|------------------|
|------------------|------------------|------------------|------------------|
|------------------|------------------|------------------|------------------|

   W                  W                  W                  W
|------------------|------------------|------------------|------------------|
|------------------|------------------|------------------|------------------|
|-/9---------------|--8---------------|--9---------------|-/8---------------|
|------------------|------------------|------------------|------------------|
|------------------|------------------|------------------|------------------|
|------------------|------------------|------------------|------------------|

   W                 W                   W                  W
|------------------|------------------|------------------|------------------|
|------------------|------------------|------------------|------------------|
|--6---------------|(6)---------------|--9---------------|--8---------------|
|------------------|------------------|------------------|------------------|
|------------------|------------------|------------------|------------------|
|------------------|------------------|------------------|------------------|

   W                  W
|------------------|------------------|
|------------------|------------------|
|-/11--------------|--9---------------|
|------------------|------------------|
|------------------|------------------|
|------------------|------------------|

Riff 8:

  SSSSSSSSSSSSSSSS   SSSSSSSSSSSSSSSS   SSSSSSSSSSSSSSSS
|------------------|------------------|------------------|
|------------------|------------------|------------------|
|-6666666699998888-|-1111111111111111-|-1111111111111111-|
|------------------|------------------|------------------|
|------------------|------------------|------------------|
|------------------|------------------|------------------|


Riff 9:

  SSSSSSSSSSSSSSSS   SSSSSSSSSSSSSSSS   SSSSSSSSSSSSSSSS
|------------------|------------------|------------------|
|------------------|------------------|------------------|
|-6666666699998888-|-2222222222222222-|-2222222222222222-|
|------------------|------------------|------------------|
|------------------|------------------|------------------|
|------------------|------------------|------------------|

Riff 10:

  SSSSSSSSSSSSSSSS   SSSSSSSSSSSSSSSS   SSSSSSSSSSSSSSSS
|------------------|------------------|------------------|
|------------------|------------------|------------------|
|-6666666699998888-|-2222222222222222-|-2222222244444444-|
|------------------|------------------|------------------|
|------------------|------------------|------------------|
|------------------|------------------|------------------|

Riff 11:

   Q  Q  Q  Q     Q  Q  Q  Q     Q  Q  Q  Q     Q  Q  Q  Q
|--------------|--------------|--------------|--------------|
|--------------|--------------|--------------|--------------|
|--6--6--6--6--|--9--9--9--9--|--8--8--8--8--|--6--6--6--6--|
|--------------|--------------|--------------|--------------|
|--------------|--------------|--------------|--------------|
|--------------|--------------|--------------|--------------|

Riff 12:

   W              W              W              W
|--------------|--------------|--------------|--------------|
|--------------|--------------|--------------|--------------|
|--6-----------|--9-----------|--8-----------|-/11----------|
|--------------|--------------|--------------|--------------|
|--------------|--------------|--------------|--------------|
|--------------|--------------|--------------|--------------|

   H.      Q      W              H.      Q      W
|--------------|--------------|--------------|--------------|
|--------------|--------------|--------------|--------------|
|--13------15--|--16----------|-/15------16--|--18----------|
|--------------|--------------|--------------|--------------|
|--------------|--------------|--------------|--------------|
|--------------|--------------|--------------|--------------|

   H.      Q      W              H.      Q      W
|--------------|--------------|--------------|--------------|
|--------------|--------------|--------------|--------------|
|--18------16--|--15----------|--16------15--|-/13----------|
|--------------|--------------|--------------|--------------|
|--------------|--------------|--------------|--------------|
|--------------|--------------|--------------|--------------|

   H.      Q      W              H.      Q      W
|--------------|--------------|--------------|--------------|
|--------------|--------------|--------------|--------------|
|--13------15--|--16----------|-/15------16--|--18----------|
|--------------|--------------|--------------|--------------|
|--------------|--------------|--------------|--------------|
|--------------|--------------|--------------|--------------|

   H.      Q      W              H.      Q      W
|--------------|--------------|--------------|--------------|
|--------------|--------------|--------------|--------------|
|--18------16--|--15----------|--16------15--|-/13----------|
|--------------|--------------|--------------|--------------|
|--------------|--------------|--------------|--------------|
|--------------|--------------|--------------|--------------|
|--------------|--------------|--------------|--------------|

Riff 13:

   H.      Q      W              H.       Q     W
|--------------|--------------|--------------|--------------|
|--------------|--------------|--------------|--------------|
|--13------11--|--9-----------|-/6--------4--|--1-----------|
|--------------|--------------|--------------|--------------|
|--------------|--------------|--------------|--------------|
|--------------|--------------|--------------|--------------|


Riff 14:

   W
|--------------|
|--------------|
|--1-----------|
|--------------|
|--------------|
|--------------|


Song Structure:

00:00 - 00:45
Riff 1 (x4) - Q = 84 bpm.

00:46 - 01:03
Riff 2 (x1) - Q = 84 bpm.

01:04 - 01:23
Riff 3 (x2) - Q = 88 bpm.

01:24 - 02:04
Riff 3 (x4) - Q = 91 bpm.

02:05 - 02:56
Riff 4 (x5) - Q = 91 bpm.

02:57 - 04:06
Riff 5 (x3) - Q = 84 bpm.

04:07 - 04:47
Riff 6 (x1) - Q = 84 bpm.

04:48 - 05:25
Riff 7 (x1) - Q = 84 bpm.

05:26 - 06:35
Riff 5 (x3) - Q = 84 bpm.

06:36 - 07:14
Riff 6 (x1) - Q = 84 bpm.

07:15 - 07:53
Riff 7 (x1) - Q = 84 bpm.

07:54 - 09:02
Riff 4 (x6) - Q = 85 bpm.

09:03 - 10:10
Riff 5 (x3) - Q = 84 bpm.

10:11 - 10:49
Riff 6 (x1) - Q = 86 bpm.

10:50 - 11:27
Riff 7 (x1) - Q = 88 bpm.

11:28 - 12:18
[Riff 8 + Riff 9] (x3) - Q = 86 bpm.

12:19 - 12:35
[Riff 8 + Riff 10] (x1) - Q = 86 bpm.

12:36 - 13:09
Riff 11 (x3) - Q = 83 bpm.

13:10 - 14:09
Riff 12 (x1) - Q = 83 bpm

14:10 - 14:43
Riff 11 (x3) - Q = 84 bpm.

14:44 - 15:39
Riff 12 (x1) - Q = 83 bpm

15:40 - 16:25
Riff 13 (x5) - Q = 83 bpm.

16:26 - 17:51
Riff 4 (x8) - Q = 89 bpm.

17:52 - 18:42
Riff 1 (x4) + Riff 14 - Q = 85 bpm.
Добавлено: 07.03.2012
Другие материалы по этой песне:
  • Аккорды и текст

Страница создана 07.03.2012
http://primanota.ru/dusk/rk-lmok-chords.htm
Привет, Гость.
Предлагаем пройти революционный курс по гитаре.
Подарок от PrimaNota.Ru, забирай!