PrimaNota.ru - самый крупный в мире бесплатный архив песенных текстов, аккордов, табулатур и нот


Duran Duran - Meet El Presidente - текст песни, бас-таба, видео

Регистрация Запомнить меня
Войти через:  Facebook Google Twitter Vk Yandex Mail.ru

Duran Duran - Meet El Presidente - текст песни, бас-таба, видео

Печатать
Просмотров: 163
Duran Duran  -  Meet el Presidente  - Bass Tab

Intro
             S S          S S  S          S S
G :--------------|---------------|------------|-------------|
D :----------3-3-|--------1-3--3-|--------3-3-|-------------|
A :--------------|---------------|------------|-------------|
E :--3--1-3------|3--1-3---------|3--1-3------|3--1-3---1---|
     P  P P       P  P P          P  P P       P  P P   P

( 00 : 17 ) Verse

G :------------------------|--------------------------|----|
D :--------------------3-5-|----------------------3---|----|
A :-------3-2-3-5--5-------|---------3-2-3-5--5-----3-|----| ( X 4 )
E :--3-3-------------------|-1--3-3-------------------|-1--|


( 00 : 49 ) Bridge
         S       S       S        S       S       S
G :--------------------------|----7-------7-------7---|
D :------7-------7-------7---|------------------------|
A :--------------------------|-35---x--35---x--35---5-| ( X 2 ) 
E :----5---x--35---x--35---5-|------------------------|          
       P   P  PP   P  PP   P   PP   P  PP   P  PP   P 

         S      S      S         S         S
G :-------------------------|----5---------7-------|
D :------7-------7------7---|----------------------|
A :-------------------------|-03----03--35----35-5-|
E :---35---x--35---x-35---5-|----------------------|
      PP   P  PP   P PP   P   PP    PP  PP    PP P

 ( 01 : 13 ) Chorus

G :------------------|------------------|-----------------|-----------------|
D :------------------|--------------1-3-|-----------------|-------------1-3-|
A :---2-3--45--3-2-1-|-----20-3--45-----|-----2-3--45-3-2-|----2-3--45------|
E :-3----------------|-13---------------|-1-3-------------|-13--------------|
    P  P   PP  PP  P   P   P  P  PP        P  P P   P  PP   P   P    P

 (  02 : 33 ) Interlude

G :----------------|------------------|----------------|---------------|
D :-4-4--4---4-----|------------------|-4-4--4---4-----|---------------|
A :------------4-5-|--------------0-2-|------------4-5-|---------------|
E :----------------|-0-0---0-2--2-----|----------------|-
Добавлено: 08.05.2012
Другие материалы по этой песне:
  • Аккорды и текст

Страница создана 04.04.2012
http://primanota.ru/duran-duran/meet-el-presidente-chords.htm
Привет, Гость.
Предлагаем пройти революционный курс по гитаре.
Подарок от PrimaNota.Ru, забирай!