PrimaNota.ru - самый крупный в мире бесплатный архив песенных текстов, аккордов, табулатур и нот


Duran Duran - Mediterranea - текст песни, бас-таба, видео

Регистрация Запомнить меня
Войти через:  Facebook Google Twitter Vk Yandex Mail.ru

Duran Duran - Mediterranea - текст песни, бас-таба, видео

Печатать
Просмотров: 136
Title: Mediterranea
Artist: Duran Duran
Album: All You Need Is Now
Tempo = 113

G |--------------2--1----------|----------------------------|
D |--------------------4-------|--------------------2-------|
A |--2--------2-----------2----|--5--------5--5--5----------|
E |----------------------------|----------------------------|


--------------2--1----------|----------------------------|
--4--------4--------4-------|--2--------2--2--2--4-------|
-----------------------2----|----------------------------|
----------------------------|----------------------------|


--------------2--1----------|----------------------------|
--------------------4-------|--------------------2-------|
--2--------2-----------2----|--5--------5--5--5----------|
----------------------------|----------------------------|


-----------------1----------|----------------------------|
--4--------4--4-------------|--2--------2--2--2--4-------|
----------------------------|----------------------------|
----------------------------|----------------------------|


--------------2--1----------|----------------------------|
--------------------4-------|--------------------2-------|
--2--------2-----------2----|--5--------5--5--5----------|
----------------------------|----------------------------|


--------------2--1----------|----------------------------|
--4--------4--------4-------|--2--------2--2--2--4-------|
-----------------------2----|----------------------------|
----------------------------|----------------------------|


--------------2--1----------|----------------------------|
--------------------4-------|--------------------2-------|
--2--------2-----------2----|--5--------5--5--5----------|
----------------------------|----------------------------|


--------------2--1----------|----------------------------|
--4--------4--------4-------|--2--------2--2--2--4-------|
-----------------------2----|----------------------------|
----------------------------|----------------------------|


--------------2--1----------|----------------------------|
--------------------4-------|--------------------2-------|
--2--------2-----------2----|--5--------5--5--5----------|
----------------------------|----------------------------|


--------------2--1----------|----------------------------|
--4--------4--------4-------|--2--------2--2--2--4-------|
-----------------------2----|----------------------------|
----------------------------|----------------------------|


--------------2--1----------|----------------------------|
--------------------4-------|--------------------2-------|
--2--------2-----------2----|--5--------5--5--5----------|
----------------------------|----------------------------|


-----------------1----------|----------------------------|
--4--------4--4-------------|--2--------2--2--2--4s------|
----------------------------|----------------------------|
----------------------------|----------------------------|


----------------------------|-----------------------2----|
-----------------------1----|--------------1-----1-------|
--------------2-----2-------|--2--------2-----2----------|
--4--------4-----4----------|----------------------------|


--------------2-----2-------|----------------------------|
--4--------4-----4----------|--------------4--2-----1----|
-----------------------2----|--4--------4--------4-------|
----------------------------|----------------------------|


----------------------------|-----------------------2----|
-----------------------1----|--------------1-----1-------|
--------------2-----2-------|--2--------2-----2----------|
--4--------4-----4----------|----------------------------|


--------------2-----2-------|----------------------------|
--4--------4-----4----------|--------2-----4-----2-------|
-----------------------2----|--4--4-----4-----4----------|
----------------------------|----------------------------|


--------4-----------4-------|----------------------------|
-----6-----6-----6-----6----|----------------------------|
--4-----------4-------------|--------------7--7--7-------|
----------------------------|--5--------5----------------|


----------------------------|----------------------------|
--6--------6----------------|--------------------6--4----|
--------------6--6--6-------|--4--------4--6--4----------|
----------------------------|----------------------------|


----------------------------|----------------------------|
--4--------4--6--4--2--4----|----------------------------|
----------------------------|--------------7--7--7-------|
----------------------------|--5--------5----------------|


----------------------------|----------------------------|
----------------------------|----------------------------|
--------------9--9--9-------|--9--------9----------------|
--7--------7----------------|--------------9--9--9-------|


----------------------------|----------------------------|
----------------------------|----------------------------|
--9--------9----------------|--------------7--7--7-------|
--------------9--9--9s------|--5--------5----------------|


----------------------------|----------------------------|
--6--------6----------------|--------------------6--4----|
--------------6--6--6-------|--4--------4--6--4----------|
----------------------------|----------------------------|


----------------------------|----------------------------|
--4--------4--6--4--2--4----|----------------------------|
----------------------------|--------------7--7--7-------|
----------------------------|--5--------5----------------|


----------------------------|----------------------------|
--------------4--4--4-------|--4-----------4--4----------|
--2--------2----------------|----------------------------|
----------------------------|-----------2--------2-------|


----------------------------|--------------2--1----------|
--4--4-----4----------------|--------------------4-------|
----------------------------|--2--------2-----------2----|
--------------2-----4-------|----------------------------|


----------------------------|--------------2--1----------|
--------------------2-------|--4--------4--------4-------|
--5--------5--5-------------|-----------------------2----|
----------------------------|----------------------------|


----------------------------|--------------2--1----------|
--2--------2--2--2--4-------|--------------------4-------|
----------------------------|--2--------2-----------2----|
----------------------------|----------------------------|


----------------------------|-----------------1----------|
--------------------2-------|--4--------4--4-------------|
--5--------5--5-------------|----------------------------|
----------------------------|----------------------------|


----------------------------|--------------2--1----------|
--2--------2--2-----2--5----|--------------------4-------|
----------------------------|--2--------2-----------2----|
-----------------2----------|----------------------------|


----------------------------|--------------2--1----------|
--------------------2-------|--4--------4--------4-------|
--5--------5--5--5----------|-----------------------2----|
----------------------------|----------------------------|


----------------------------|--------------2--1----------|
--2--------2--2--2--4-------|--------------------4-------|
----------------------------|--2--------2-----------2----|
----------------------------|----------------------------|


----------------------------|-----------------1----------|
--------------------2-------|--4--------4--4-------------|
--5--------5--5--5----------|----------------------------|
----------------------------|----------------------------|


----------------------------|----------------------------|
--2--------2--2-----2--5s---|-----------------------1----|
----------------------------|--------------2-----2-------|
----------------------------|--4--------4-----4----------|


-----------------------2----|--------------2-----2-------|
--------------1-----1-------|--4--------4-----4----------|
--2--------2-----2----------|-----------------------2----|
----------------------------|----------------------------|


----------------------------|----------------------------|
--------------4--2-----1----|-----------------------1----|
--4--------4--------4-------|--------------2-----2-------|
----------------------------|--4--------4-----4----------|


-----------------------2----|--------------2-----2-------|
--------------1-----1-------|--4--------4-----4----------|
--2--------2-----2----------|-----------------------2----|
----------------------------|----------------------------|


----------------------------|--------4-----------4-------|
--------2-----4-----2-------|-----6-----6-----6-----6----|
--4--4-----4-----4----------|--4-----------4-------------|
----------------------------|----------------------------|


----------------------------|----------------------------|
----------------------------|--6--------6----------------|
--------------7--7--7-------|--------------6--6--6-------|
--5--------5----------------|----------------------------|


----------------------------|----------------------------|
--------------------6--4----|--4--------4--6--4--2--4----|
--4--------4--6--4----------|----------------------------|
----------------------------|----------------------------|


----------------------------|----------------------------|
----------------------------|--------------4--4--4-------|
--------------7--7--7-------|--2--------2----------------|
--5--------5----------------|----------------------------|


----------------------------|----------------------------|
--4--------4----------------|--4--------4----------------|
--------------4--4--4-------|----------------------------|
----------------------------|--------------2-----4-------|


----------------------------|----------------------------|
----------------------------|--6--------6----------------|
--------------7--7--7-------|--------------6--6--6-------|
--5--------5----------------|----------------------------|


----------------------------|----------------------------|
--------------------6--4----|--4--------4--6--4--2--4----|
--4--------4--6--4----------|----------------------------|
----------------------------|----------------------------|


----------------------------|----------------------------|
----------------------------|--------------4--4--4-------|
--------------7--7--7-------|--2--------2----------------|
--5--------5----------------|----------------------------|


----------------------------|----------------------------|
--------------4--4--4-------|----------------------------|
-----------------------2----|----------------------------|
--2--------2----------------|--2-----------2-----4-------|


----------------------------|----------------------------|
--6--------6----------------|--6--------6----------------|
--------------6--------6----|--------------6--------6----|
----------------------------|----------------------------|


----------------------------|----------------------------|
--5--------5----------------|--5--------5----------------|
--------------5--------5----|--------------5--------5----|
----------------------------|----------------------------|


----------------------------|----------------------------|
----------------------------|----------------------------|
--5--------5----------------|--5--------5----------------|
--------------5--------5----|--------------5--------5----|


----------------------------|----------------------------|
----------------------------|----------------------------|
--4--------4----------------|--4--------4----------------|
--------------4--------4----|--------------4--------4----|


----------------------------|----------------------------|
--6--------6----------------|--6--------6----------------|
--------------6--------6----|--------------6--------6----|
----------------------------|----------------------------|


----------------------------|----------------------------|
--5--------5----------------|--5--------5----------------|
--------------5--------5----|--------------5--------5----|
----------------------------|----------------------------|


----------------------------|----------------------------|
----------------------------|----------------------------|
--5--------5----------------|--5--------5----------------|
--------------5--------5----|--------------5--------5----|


----------------------------|----------------------------|
----------------------------|----------------------------|
--4--------4----------------|--4--------4-----------6s---|
--------------4--------4----|--------------4-------------|


----------------------------|----------------------------|
----------------------------|--------------1-----1s------|
--------------2-----2-------|--2--------2-----2----------|
--4--------4-----4-----4----|----------------------------|


--------------2-----2-------|----------------------------|
--4--------4-----4-----4----|--------------2-----2-------|
----------------------------|--4--------4-----4-----4----|
----------------------------|----------------------------|


----------------------------|----------------------------|
----------------------------|--------------1-----1s------|
--------------2-----2-------|--2--------2-----2----------|
--4--------4-----4-----4----|----------------------------|


--------------2-----2-------|----------------------------|
--4--------4-----4-----4----|--------2--2--------2-------|
----------------------------|--4--4--------4--4----------|
----------------------------|----------------------------|


--------4-----------4-------|----------------------------|
-----6-----6-----6-----6----|----------------------------|
--4-----------4-------------|--------------7--7--7-------|
----------------------------|--5--------5----------------|


----------------------------|----------------------------|
----------------------------|--------------------6--4----|
--------------6--6--6-------|--4--------4--6--4----------|
--4--------4----------------|----------------------------|


----------------------------|----------------------------|
--4--------4--6--4--2--4----|----------------------------|
----------------------------|--------------7--7--7-------|
----------------------------|--5--------5----------------|


----------------------------|----------------------------|
--------------4--4--4-------|--4--------4----------------|
--2--------2----------------|--------------4--4--4-------|
----------------------------|----------------------------|


----------------------------|----------------------------|
--4--------4----------------|----------------------------|
--------------4--4--4s------|--------------7--7--7-------|
----------------------------|--5--------5----------------|


----------------------------|----------------------------|
--6--------6----------------|--------------------6--4----|
--------------6--6--6-------|--4--------4--6--4----------|
----------------------------|----------------------------|


----------------------------|----------------------------|
--4--------4--6--4--2--4----|----------------------------|
----------------------------|--------------7--7--7-------|
----------------------------|--5--------5----------------|


----------------------------|----------------------------|
--------------4--4--4-------|--4--------4----------------|
--2--------2----------------|----------------------------|
----------------------------|--------------2--2--2-------|


----------------------------|----------------------------|
--4--------4----------------|----------------------------|
----------------------------|--------------7--7--7-------|
--------------2--2--2--4----|--5--------5----------------|


----------------------------|----------------------------|
----------------------------|--------------------6--4----|
--------------6--6--6-------|--4--------4--6--4----------|
--4--------4----------------|----------------------------|


----------------------------|----------------------------|
--4--------4--6--4--2--4----|----------------------------|
----------------------------|--------------7--7--7-------|
----------------------------|--5--------5----------------|


----------------------------|----------------------------|
--------------4--4--4-------|--4-----------4--4--4-------|
--2--------2----------------|-----------4----------------|
----------------------------|----------------------------|


----------------------------|----------------------------|
--4-----------4--4--4-------|----------------------------|
-----------4----------------|--------------7--7--7-------|
----------------------------|--5--------5----------------|


----------------------------|----------------------------|
----------------------------|--------------6--6--6-------|
--------------6--6--6-------|--4--------4----------------|
--4--------4----------------|----------------------------|


----------------------------|----------------------------|
--4--------4----------------|----------------------------|
--------------4--4--4s------|--------------------7-------|
----------------------------|--5--------5--5--5----------|


----------------------------|----------------------------|
--------------4--4--4-------|--4--------4----------------|
--2--------2----------------|--------------4--4--4-------|
----------------------------|----------------------------|


----------------------------|----------------------------|
--4--------4----------------|----------------------------|
--------------4--4--4s------|--------------7--7--7s------|
----------------------------|--5--------5----------------|


----------------------------|----------------||
--------------4--4--4-------|--4-------------||
--2--------2----------------|----------------||
----------------------------|----------------||

Добавлено: 02.09.2015
Другие материалы по этой песне:
  • Аккорды и текст

Страница создана 14.11.2013
http://primanota.ru/duran-duran/mediterranea-chords.htm
Привет, Гость.
Предлагаем пройти революционный курс по гитаре.
Подарок от PrimaNota.Ru, забирай!