PrimaNota.ru - самый крупный в мире бесплатный архив песенных текстов, аккордов, табулатур и нот


Dungen - Sol Och Regn - таба, видео

Регистрация Запомнить меня
Войти через:  Facebook Google Twitter Vk Yandex Mail.ru

Dungen - Sol Och Regn - таба, видео

Печатать
Просмотров: 71
Уроки эстрадного вокала в Санкт-Петербурге
-------------------------------------------------------------------------------
                             Sol och Regn - DUNGEN
-------------------------------------------------------------------------------


Tabbed by: Jonas Svarholt
E-mail: jonas.gitarrlektioner@gmail.com
Tuning: EADGBe


"Sol och Regn" means in english "Sun and Rain" - just if you're wondering.

I wouldn't say as I usually do that this tab is 100% because it's not. But it's close. I was bored an decided 
to do something smart So here's the result, Sun and Rain by Dungen. ENJOY!!! :)


e|---------------------------------------------------------------------------|
B|---3------3--3-3-3-------------3-------------------------------------------|
G|---0h2----2--2-2-2-------------2-------------------------------------------|
D|---0---0--0--0-0-0------0h2-0--0-------------------------------------------|
A|---------------------0h2---------------------------------------------------|
E|---------------------------------------------------------------------------|

e|--------------------------------------0------------------------------------|
B|---3--3--3----------------------------1----3-------------------------------|
G|---2--0--2----2-2h4-2-0---------------2----2-------------------------------|
D|---0--2--0-------------4--2h4p2p0-----2----0-------------------------------|
A|------3-------------------------------0------------------------------------|
E|---------------------------------------------------------------------------|

e|---------------------------------------------------------------------------|
B|-------5--------7--------6------8------------------------------------------|
G|-------5--------7---X2---7------9------------------------------------------|
D|-------5--------7--------7------9------------------------------------------|
A|--5/7------7/9-----------5------7------------------------------------------|
E|---------------------------------------------------------------------------|

e|-------------8--7h8p7------7-----------------------------------------------|
B|------10-10-----------8-8-----10--10--10h12p10--8--7-----------------------|
G|--7---------------------------------------------------9--7--9--------------|
D|---------------------------------------------------------------10--10/12---|
A|---------------------------------------------------------------------------|
E|---------------------------------------------------------------------------|

e|-----------------------(0)---------0---------------------------------------|
B|-----------------------------------7/8/7--------7--------------------------|
G|------5--5--4--------(5)--------9---------7--9-----7-----------------------|
D|------7--------5--5/7--------10-----------------------9--------------------|
A|---0-----------------------------------------------------------------------|
E|---------------------------------------------------------------------------|

e|---------------------------------------------------------------------------|
B|--------------------------------8/10/8--7--8-------8--7------7------7------|
G|------5--5--4---------------11---------------7----------7-------7----------|
D|------7--------5--5/7--<12>--------------10---------9-------9--------------|
A|---0-----------------------------------------------------------------------|
E|---------------------------------------------------------------------------|


Chords:  Am  G  Am  D
         Am  G  Am  D  C  Bm

e|---------------------------------------------------------------------------|
B|-------------------5-8-7--------------------7------------------------------|
G|-----5-4---------5-------7-7------5-4----------9-7-------------------------|
D|---7-----5-7---7----------------7-----5-7----------10--9-7-9--7------------|
A|----------------------------------------------------------------10--9------|
E|---------------------------------------------------------------------------|


I did not tab the last distorted bass riff, i think you can work it out yourselves :)

RESPECT! Pass on the good! <3

************************************

| /   slide up
| \   slide down
| h   hammer-on
| p   pull-off
| ~   vibrato
| +   harmonic
| x   Mute note
| b   Bend
| pb  Pre-bend
| br  Bend release
| pbr Pre-bend release
| brb Bend release bend

************************************
Добавлено: 11.08.2015
Вам также может быть интересно:
Другие материалы по этой песне:
  • Аккорды и текст

Страница создана 11.08.2015
http://primanota.ru/dungen/sol-och-regn-chords.htm
Привет, Гость.
Предлагаем пройти революционный курс по гитаре.
Подарок от PrimaNota.Ru, забирай!