PrimaNota.ru - самый крупный в мире бесплатный архив песенных текстов, аккордов, табулатур и нот


Dungen - Gjort Bort Sig - таба, видео

Регистрация Запомнить меня
Войти через:  Facebook Google Twitter Vk Yandex Mail.ru

Dungen - Gjort Bort Sig - таба, видео

Печатать
Просмотров: 51
Уроки эстрадного вокала в Санкт-Петербурге
-------------------------------------------------------------------------------
                             GJORT BORT SIG - Dungen
-------------------------------------------------------------------------------
Tabbed by: markiiitu
E-mail: marcolucio27@gmail.com

Tuning: Standard

e|---------------|-------------------------------------------|----------------------------|--------------------|
B|--------12-----|------12--------12--------12--------12-----|----------------------------|--------------------|
G|--14-------12--|--14-----12-14-----12-14-----12-14-----12--|--12--12-11-----------------|--11-12-11----------|
D|---------------|-------------------------------------------|------------14-14----12-14--|-----------12-14----|
A|---------------|-------------------------------------------|----------------------------|--------------------|
E|---------------|-------------------------------------------|----------------------------|--------------------|

e|---------------|-------------------------------------------|----------------------------|--------------------|
B|--------17-----|------17--------17--------17--------17-----|----------------------------|--------------------|
G|--19-------16--|--19-----16-19-----16-19-----16-19---------|--16--17-16-----------------|--16-17-16----------|
D|---------------|-------------------------------------------|------------19-19----17-19--|-----------17-19----|
A|---------------|-------------------------------------------|----------------------------|--------------------|
E|---------------|-------------------------------------------|----------------------------|--------------------|

************************************

| /   slide up
| \   slide down
| h   hammer-on
| p   pull-off
| ~   vibrato
| +   harmonic
| x   Mute note
| b   Bend
| pb  Pre-bend
| br  Bend release
| pbr Pre-bend release
| brb Bend release bend

************************************
Добавлено: 21.06.2016
Другие материалы по этой песне:
  • Аккорды и текст

Страница создана 21.06.2016
http://primanota.ru/dungen/gjort-bort-sig-chords.htm
Привет, Гость.
Предлагаем пройти революционный курс по гитаре.
Подарок от PrimaNota.Ru, забирай!