PrimaNota.ru - самый крупный в мире бесплатный архив песенных текстов, аккордов, табулатур и нот


Dunedain - La Rosa Negra - таба, видео

Регистрация Запомнить меня
Войти через:  Facebook Google Twitter Vk Yandex Mail.ru

Dunedain - La Rosa Negra - таба, видео

Печатать
Просмотров: 154
Уроки эстрадного вокала в Санкт-Петербурге
     Acordes(en quintas) de la intro:
Do-fa-#la-#sol-#la-do-fa-#sol-fa-#la-
     Y sobre estos acordes sonaría este riff.
1.-------------------------------------------------------------|
2.-------------------------------------------------------------|
3—-12-10-12-13---------------------12-10-12-13-----------------|
4.-------------12-13-15-13-15------------------12-13-15-13-15--|
5.----------------------------13-15----------------------------|
6.-------------------------------------------------------------|

1.------------------------------------------------------------|
2.------------------------------------------------------------|
3.---12-13-12-------------------------------------------------|
4.------------15-13-12----------------------------------------|
5.------------------------------------------------------------|
6.------------------------------------------------------------|
     Sonaría dos veces y a la tercera:
Do-fa-do-#la
1.—-15--------------15-----16---15-----------------------|
2.----16-15---15-16---16-15--18---16-15---15-16-18-------|
3.---------17--------------------------17----------------|
4.-------------------------------------------------------|
5.-------------------------------------------------------|
6.-------------------------------------------------------|
estrofa
Do     sol           #la
Ya no importa la razón,
     Fa   #la        do           fa          #la     #sol fa
Sólo mueren las palabras en una historia que acabó.
Do      sol        #la            fa     #la
Hoy no pido más a dios, nunca he sentido su abrazo.
Fa      #la           #sol #la #sol #la
Sólo un triste corazón.
puente

Fa                    sol                       do
Siento que duele el recuerdo de la obra creada, o no.
#sol                fa                    sol #sol sol #sol #la
Creo que ya es el momento de sentir tu adiós…
estribillo
Do       fa         #la             #sol #la
La rosa cayó, hay sangre en sus manos.
Fa      #la              #sol     #la
La noche lloró, secretos guardados.
Do      fa         #la          #sol #la
La rosa cayó, el miedo ha cesado.
Fa        #la               #sol #la
La espina que abrió la flor del rechazo….
     A partir de aquí sería repetir acordes, en estrofa,
 puente y estribillo.
     Ahora empieza el solo que llevaría los siguientes acordes,
 en quintas, claro:
1er riff del solo.
Do-fa-do-#la-do-fa-#sol-fa------------------------------------------|la
1.—-15---------------15-------16---15-----------------------15------|
2.----16-15----15-16----16-15---18----16-15---15-16-18-16-15--16----|
3.---------17------------------------------17-----------------------|
4.------------------------------------------------------------------|
5.------------------------------------------------------------------|
6.------------------------------------------------------------------|


1.—-15--------------15------16---16----18----15-16-15-----------------|
2.----16-15---15-16---16-15---18----18----20---------18-16-15---------|
3.---------17---------------------------------------------------------|
4.--------------------------------------------------------------------|
5.--------------------------------------------------------------------|
6.--------------------------------------------------------------------|
     Lo tocamos dos veces y seguimos.
2º riff del solo.
Fa-#do-#la-#sol-#la
1.—-8-----------8-----9---6-----------6-8-6------8-----------8-------|
2.---9-8---8-9---9-8---11---8-6---6-8------9-8-6---9-8---8-9---------|
3.------10----------------------8---------------------10-------------|
4.-------------------------------------------------------------------|
5.-------------------------------------------------------------------|
6.-------------------------------------------------------------------|

1.------9----8-9-8--------------------------------------------------|
2.—-9-8---11-------11-9-8---8-9-8-----------------------------------|
3.-----------------------10-------10—8------------------------------|
4.------------------------------------------------------------------|
5.------------------------------------------------------------------|
6.------------------------------------------------------------------|
     La parte que viene ahora, no la he sacado, os dejo el riff final:
1.------------------------------------------------------------|
2.------------------------------------------------------------|
3.------------------------------------------------------------|
4.—-12-13-10---13-15-12---10-12-13—12-13-15-13-12-------------|
5.------------------------------------------------15-13-12----|
6.------------------------------------------------------------|
Sol-#sol-sol-#sol---------------------------------------------|la-sol.-sol
  www.dunedain.es
                                                                          perchintabs.blogspot.com
Добавлено: 09.06.2012
Другие материалы по этой песне:
  • Аккорды и текст

Страница создана 09.06.2012
http://primanota.ru/dunedain/la-rosa-negra-chords.htm
Привет, Гость.
Предлагаем пройти революционный курс по гитаре.
Подарок от PrimaNota.Ru, забирай!