PrimaNota.ru - самый крупный в мире бесплатный архив песенных текстов, аккордов, табулатур и нот


Duncan Sheik - Earthbound Starlight - текст песни, таба, видео

Регистрация Запомнить меня
Войти через:  Facebook Google Twitter Vk Yandex Mail.ru

Duncan Sheik - Earthbound Starlight - текст песни, таба, видео

Печатать
Просмотров: 91
Авторы музыки: Duncan Sheik

earthbound starlight - duncan sheik (whisper house)

chords

E|---5---|---5---|---0---|---x---|---x---|---0---|---0---|---0---|---0---|---3---|
B|---3---|---3---|---1---|---5---|---7---|---0---|---0---|---0---|---0---|---1---|
G|---0---|---0---|---2---|---5---|---5---|---3---|---6---|---6---|---4---|---0---|
D|---0---|---4---|---2---|---5---|---5---|---4---|---9---|---7---|---5---|---0---|
A|---5---|---x---|---0---|---3---|---3---|---4---|---9---|---7---|---5---|---3---|
E|---5---|---5---|---x---|---x---|---x---|---2---|---7---|---5---|---3---|---3---|
  [ch]Gsus2[/ch]/[ch]A[/ch] Dadd4/[ch]A[/ch]   [ch]Am[/ch]       [ch]C[/ch]   Em#5add2   [ch]F#[/ch]       [ch]B[/ch]       [ch]A[/ch]       [ch]G[/ch]     [ch]Fsus2[/ch]/[ch]G[/ch]  


intro

| Em#5add2| Em#5add2|

vers

| [ch]Gsus2[/ch]/[ch]A[/ch] | Dadd4/[ch]A[/ch] | [ch]Am[/ch]      | [ch]Am[/ch] [ch]Gsus2[/ch]/[ch]A[/ch]|
| [ch]C[/ch]       | [ch]C[/ch]       | Em#5add2| Em#5add2|    x2 

refrain 

| [ch]F#[/ch]      | [ch]B[/ch]       | [ch]A[/ch]       | [ch]G[/ch]       |
| [ch]G[/ch]       | [ch]G[/ch]       | [ch]Gsus2[/ch]/[ch]A[/ch] | [ch]Fsus2[/ch]/[ch]G[/ch] |  x2

E|-----------------------------------|
B|-----------------------------------|
G|---7-7-7-7-6-6-6-6-4-4-4-4-2-2-2-2-|
D|---9-9-9-9-7-7-7-7-5-5-5-5-3-3-3-3-|
A|-----------------------------------|
E|-----------------------------------|     x2
      days   nights   wrong  wrights
     earth-  bound    star-  light
Добавлено: 08.09.2013
Другие материалы по этой песне:
  • Аккорды и текст

Страница создана 08.09.2013
http://primanota.ru/duncan-sheik/earthbound-starlight-chords.htm
Привет, Гость.
Предлагаем пройти революционный курс по гитаре.
Подарок от PrimaNota.Ru, забирай!