PrimaNota.ru - самый крупный в мире бесплатный архив песенных текстов, аккордов, табулатур и нот


Duncan Sheik - Barely Breathing - аккорды и текст, таба, видео

Регистрация Запомнить меня
Войти через:  Facebook Google Twitter Vk Yandex Mail.ru

Duncan Sheik - Barely Breathing - аккорды и текст, таба, видео

Печатать
Просмотров: 319
Уроки эстрадного вокала в Санкт-Петербурге
Авторы: Duncan Sheik

Barely Breathing
Duncan Sheik
Barely Breathing
acoustic version
Duncan Sheik
tabbed by: blitzace
email me for comments... caladbolgblitz_ace@yahoo.com

standard tuning
intro2x/verses4x then F
Em7      Am7    Am      A      C9     D     
-0--------5------5------5-------3-----2---                                  
-8--------5------5------5-------3-----3---|
-0--------5------5------6-------0-----2---|
-9--------5------7------7-------2-----0---|
-7--------7------7------7-------3-----x---|
-x--------5------5------5-------x-----x---|

  F
--1--
--1--
--2--
--3--
--3--
--1--
chorus
C9        G      A7Sus4       F
-3--------3--------0----------1---
-3--------3--------4----------1---
-0--------0--------0----------2---
-2--------0--------2----------3---
-3--------x--------0----------3---
-x--------3--------x----------1---

bridge
(but im thinking it over... anyway...) 
 D        Am       G          F      
-2---------0-------3----------1----
-3---------1-------3----------1----
-2---------2-------0----------2----
-0---------2-------0----------3----
-x---------0-------2----------3----
-x---------x-------3----------1----

hi Em!
Добавлено: 22.02.2012
Другие материалы по этой песне:

Страница создана 22.02.2012
http://primanota.ru/duncan-sheik/barely-breathing-chords.htm
Привет, Гость.
Предлагаем пройти революционный курс по гитаре.
Подарок от PrimaNota.Ru, забирай!