PrimaNota.ru - самый крупный в мире бесплатный архив песенных текстов, аккордов, табулатур и нот


Duncan Sheik - A Mirror In The Heart - текст песни, таба, видео

Регистрация Запомнить меня
Войти через:  Facebook Google Twitter Vk Yandex Mail.ru

Duncan Sheik - A Mirror In The Heart - текст песни, таба, видео

Печатать
Просмотров: 145
Уроки эстрадного вокала в Санкт-Петербурге
A MIRROR IN THE HEART                                      by DUNCAN SHEIK

CHORDS FOR VERSE
e||---0----3----0----0----0----3----1----0----3----0----3----1----0----0--|
B||---1----0----1----1----1----1----1----1----3----1----1----1----1----1--|
G||---2----0----0----0----0----0----0----0----0----2----2----2----2----2--|
D||---2----0----2----0----2----2----2----2----0----3----3----3----2----0--|
A||---0----2----3----3----3----3----3----3----2----0----0----0----0----0--|
E||-----------------------------------------------------------------------|
      Am   G    C  Cadd9  C    C  Cadd4  C    G  Fmaj7 Fadd9 F  Am Amadd9

e||---3----0----0---|
B||---3----1----1---|
G||---0----2----0---|
D||---0----3----3---|
A||---2----0--------|
E||-----------------|
      G  Fmaj7 Cadd4

CHORDS FOR CHORUS
e||---3-----3-----5-----10----10----8-|-----8-----8-----8---|
B||---1-----3-----5-----10----7-----8-|-----8-----8-----8---|
G||---0-----0-----5-----7-----7-----10|-----9-----10----9---|
D||---2-----0-----3-----7-----7-----10|-----10----10----10--|
A||---3-----2-----0-----0-----0-----8-|-----8-----8-----8---|
E||---------------------------------8-|-----8-----8-----8---|
      C     G   Fmaj7   D5    D   Csus4   Cadd4 Csus4 Cadd4

CHORDS FOR OUTRO
e||---10----10----8-----8-----3-----3-----0-----0|-----0-----0-----0-----0---|
B||---7-----10----8-----8-----3-----3-----1-----0|-----1-----0-----1-----0---|
G||---7-----7-----10----9-----5-----4-----0-----0|-----0-----0-----0-----0---|
D||---7-----7-----10----10----5-----5-----3-----3|-----3-----3-----3-----3---|
A||---0-----0-----8-----8-----------------3-----3|-----3-----3-----3-----3---|
E||---------------8-----8------------------------|---------------------------|
      D     D5  Csus4 Cadd4 Csus2   G  Cadd4 Cmaj11th Cadd4 Cm11 Cadd4 Cm11
Добавлено: 08.05.2012
Другие материалы по этой песне:
  • Аккорды и текст

Страница создана 22.02.2012
http://primanota.ru/duncan-sheik/a-mirror-in-the-heart-chords.htm
Привет, Гость.
Предлагаем пройти революционный курс по гитаре.
Подарок от PrimaNota.Ru, забирай!